ISO-10303-21;
HEADER;
/* Generated by software containing ST-Developer
 * from STEP Tools, Inc. (www.steptools.com) 
 */

FILE_DESCRIPTION(
/* description */ ('WEAR PLATE'),
/* implementation_level */ '2;1');

FILE_NAME(
/* name */ 'E:\\1-3D\\STEP\\17011.stp',
/* time_stamp */ '2016-12-13T12:58:04-05:00',
/* author */ ('mclevenger'),
/* organization */ (''),
/* preprocessor_version */ 'ST-DEVELOPER v16.5',
/* originating_system */ 'Autodesk Inventor 2017',
/* authorisation */ '');

FILE_SCHEMA (('AUTOMOTIVE_DESIGN { 1 0 10303 214 3 1 1 }'));
ENDSEC;

DATA;
#10=MECHANICAL_DESIGN_GEOMETRIC_PRESENTATION_REPRESENTATION('',(#13),#217);
#11=SHAPE_REPRESENTATION_RELATIONSHIP('SRR','None',#229,#12);
#12=ADVANCED_BREP_SHAPE_REPRESENTATION('',(#14),#216);
#13=STYLED_ITEM('',(#238),#14);
#14=MANIFOLD_SOLID_BREP('Solid1',#121);
#15=PLANE('',#134);
#16=PLANE('',#140);
#17=CYLINDRICAL_SURFACE('',#132,2.455);
#18=CYLINDRICAL_SURFACE('',#146,0.875);
#19=FACE_BOUND('',#40,.T.);
#20=FACE_BOUND('',#42,.T.);
#21=FACE_BOUND('',#44,.T.);
#22=FACE_BOUND('',#45,.T.);
#23=FACE_BOUND('',#46,.T.);
#24=FACE_BOUND('',#48,.T.);
#25=FACE_BOUND('',#50,.T.);
#26=FACE_BOUND('',#51,.T.);
#27=FACE_BOUND('',#52,.T.);
#28=FACE_BOUND('',#54,.T.);
#29=FACE_BOUND('',#56,.T.);
#30=FACE_BOUND('',#58,.T.);
#31=FACE_OUTER_BOUND('',#39,.T.);
#32=FACE_OUTER_BOUND('',#41,.T.);
#33=FACE_OUTER_BOUND('',#43,.T.);
#34=FACE_OUTER_BOUND('',#47,.T.);
#35=FACE_OUTER_BOUND('',#49,.T.);
#36=FACE_OUTER_BOUND('',#53,.T.);
#37=FACE_OUTER_BOUND('',#55,.T.);
#38=FACE_OUTER_BOUND('',#57,.T.);
#39=EDGE_LOOP('',(#89));
#40=EDGE_LOOP('',(#90));
#41=EDGE_LOOP('',(#91));
#42=EDGE_LOOP('',(#92));
#43=EDGE_LOOP('',(#93));
#44=EDGE_LOOP('',(#94));
#45=EDGE_LOOP('',(#95));
#46=EDGE_LOOP('',(#96));
#47=EDGE_LOOP('',(#97));
#48=EDGE_LOOP('',(#98));
#49=EDGE_LOOP('',(#99));
#50=EDGE_LOOP('',(#100));
#51=EDGE_LOOP('',(#101));
#52=EDGE_LOOP('',(#102));
#53=EDGE_LOOP('',(#103));
#54=EDGE_LOOP('',(#104));
#55=EDGE_LOOP('',(#105));
#56=EDGE_LOOP('',(#106));
#57=EDGE_LOOP('',(#107));
#58=EDGE_LOOP('',(#108));
#59=CIRCLE('',#130,2.425);
#60=CIRCLE('',#131,2.455);
#61=CIRCLE('',#133,2.455);
#62=CIRCLE('',#135,0.875);
#63=CIRCLE('',#136,0.34375);
#64=CIRCLE('',#137,0.34375);
#65=CIRCLE('',#139,2.395);
#66=CIRCLE('',#141,0.875);
#67=CIRCLE('',#142,0.175977659601468);
#68=CIRCLE('',#143,0.175977659601468);
#69=VERTEX_POINT('',#187);
#70=VERTEX_POINT('',#189);
#71=VERTEX_POINT('',#192);
#72=VERTEX_POINT('',#195);
#73=VERTEX_POINT('',#197);
#74=VERTEX_POINT('',#199);
#75=VERTEX_POINT('',#202);
#76=VERTEX_POINT('',#205);
#77=VERTEX_POINT('',#207);
#78=VERTEX_POINT('',#209);
#79=EDGE_CURVE('',#69,#69,#59,.T.);
#80=EDGE_CURVE('',#70,#70,#60,.T.);
#81=EDGE_CURVE('',#71,#71,#61,.T.);
#82=EDGE_CURVE('',#72,#72,#62,.T.);
#83=EDGE_CURVE('',#73,#73,#63,.T.);
#84=EDGE_CURVE('',#74,#74,#64,.T.);
#85=EDGE_CURVE('',#75,#75,#65,.T.);
#86=EDGE_CURVE('',#76,#76,#66,.T.);
#87=EDGE_CURVE('',#77,#77,#67,.T.);
#88=EDGE_CURVE('',#78,#78,#68,.T.);
#89=ORIENTED_EDGE('',*,*,#79,.T.);
#90=ORIENTED_EDGE('',*,*,#80,.T.);
#91=ORIENTED_EDGE('',*,*,#81,.F.);
#92=ORIENTED_EDGE('',*,*,#80,.F.);
#93=ORIENTED_EDGE('',*,*,#79,.F.);
#94=ORIENTED_EDGE('',*,*,#82,.T.);
#95=ORIENTED_EDGE('',*,*,#83,.T.);
#96=ORIENTED_EDGE('',*,*,#84,.T.);
#97=ORIENTED_EDGE('',*,*,#85,.T.);
#98=ORIENTED_EDGE('',*,*,#81,.T.);
#99=ORIENTED_EDGE('',*,*,#85,.F.);
#100=ORIENTED_EDGE('',*,*,#86,.T.);
#101=ORIENTED_EDGE('',*,*,#87,.T.);
#102=ORIENTED_EDGE('',*,*,#88,.T.);
#103=ORIENTED_EDGE('',*,*,#88,.F.);
#104=ORIENTED_EDGE('',*,*,#84,.F.);
#105=ORIENTED_EDGE('',*,*,#87,.F.);
#106=ORIENTED_EDGE('',*,*,#83,.F.);
#107=ORIENTED_EDGE('',*,*,#86,.F.);
#108=ORIENTED_EDGE('',*,*,#82,.F.);
#109=CONICAL_SURFACE('',#129,2.44,45.);
#110=CONICAL_SURFACE('',#138,2.425,45.);
#111=CONICAL_SURFACE('',#144,0.2578125,41.);
#112=CONICAL_SURFACE('',#145,0.2578125,41.);
#113=ADVANCED_FACE('',(#31,#19),#109,.T.);
#114=ADVANCED_FACE('',(#32,#20),#17,.T.);
#115=ADVANCED_FACE('',(#33,#21,#22,#23),#15,.F.);
#116=ADVANCED_FACE('',(#34,#24),#110,.T.);
#117=ADVANCED_FACE('',(#35,#25,#26,#27),#16,.T.);
#118=ADVANCED_FACE('',(#36,#28),#111,.F.);
#119=ADVANCED_FACE('',(#37,#29),#112,.F.);
#120=ADVANCED_FACE('',(#38,#30),#18,.F.);
#121=CLOSED_SHELL('',(#113,#114,#115,#116,#117,#118,#119,#120));
#122=DATE_TIME_ROLE('creation_date');
#123=APPLIED_DATE_AND_TIME_ASSIGNMENT(#124,#122,(#231));
#124=DATE_AND_TIME(#125,#126);
#125=CALENDAR_DATE(2008,1,10);
#126=LOCAL_TIME(19,20,28.,#127);
#127=COORDINATED_UNIVERSAL_TIME_OFFSET(0,0,.BEHIND.);
#128=AXIS2_PLACEMENT_3D('placement',#185,#147,#148);
#129=AXIS2_PLACEMENT_3D('',#186,#149,#150);
#130=AXIS2_PLACEMENT_3D('',#188,#151,#152);
#131=AXIS2_PLACEMENT_3D('',#190,#153,#154);
#132=AXIS2_PLACEMENT_3D('',#191,#155,#156);
#133=AXIS2_PLACEMENT_3D('',#193,#157,#158);
#134=AXIS2_PLACEMENT_3D('',#194,#159,#160);
#135=AXIS2_PLACEMENT_3D('',#196,#161,#162);
#136=AXIS2_PLACEMENT_3D('',#198,#163,#164);
#137=AXIS2_PLACEMENT_3D('',#200,#165,#166);
#138=AXIS2_PLACEMENT_3D('',#201,#167,#168);
#139=AXIS2_PLACEMENT_3D('',#203,#169,#170);
#140=AXIS2_PLACEMENT_3D('',#204,#171,#172);
#141=AXIS2_PLACEMENT_3D('',#206,#173,#174);
#142=AXIS2_PLACEMENT_3D('',#208,#175,#176);
#143=AXIS2_PLACEMENT_3D('',#210,#177,#178);
#144=AXIS2_PLACEMENT_3D('',#211,#179,#180);
#145=AXIS2_PLACEMENT_3D('',#212,#181,#182);
#146=AXIS2_PLACEMENT_3D('',#213,#183,#184);
#147=DIRECTION('axis',(0.,0.,1.));
#148=DIRECTION('refdir',(1.,0.,0.));
#149=DIRECTION('center_axis',(0.,0.,-1.));
#150=DIRECTION('ref_axis',(-1.,0.,0.));
#151=DIRECTION('center_axis',(0.,0.,-1.));
#152=DIRECTION('ref_axis',(-1.,0.,0.));
#153=DIRECTION('center_axis',(0.,0.,1.));
#154=DIRECTION('ref_axis',(-1.,0.,0.));
#155=DIRECTION('center_axis',(0.,0.,-1.));
#156=DIRECTION('ref_axis',(-1.,0.,0.));
#157=DIRECTION('center_axis',(0.,0.,-1.));
#158=DIRECTION('ref_axis',(-1.,0.,0.));
#159=DIRECTION('center_axis',(0.,0.,-1.));
#160=DIRECTION('ref_axis',(-1.,0.,0.));
#161=DIRECTION('center_axis',(0.,0.,-1.));
#162=DIRECTION('ref_axis',(-1.,0.,0.));
#163=DIRECTION('center_axis',(0.,0.,-1.));
#164=DIRECTION('ref_axis',(1.,0.,0.));
#165=DIRECTION('center_axis',(0.,0.,-1.));
#166=DIRECTION('ref_axis',(1.,0.,0.));
#167=DIRECTION('center_axis',(0.,0.,1.));
#168=DIRECTION('ref_axis',(-1.,0.,0.));
#169=DIRECTION('center_axis',(0.,0.,1.));
#170=DIRECTION('ref_axis',(-1.,0.,0.));
#171=DIRECTION('center_axis',(0.,0.,-1.));
#172=DIRECTION('ref_axis',(-1.,0.,0.));
#173=DIRECTION('center_axis',(0.,0.,1.));
#174=DIRECTION('ref_axis',(-1.,0.,0.));
#175=DIRECTION('center_axis',(0.,0.,1.));
#176=DIRECTION('ref_axis',(1.,0.,0.));
#177=DIRECTION('center_axis',(0.,0.,1.));
#178=DIRECTION('ref_axis',(1.,0.,0.));
#179=DIRECTION('center_axis',(0.,0.,1.));
#180=DIRECTION('ref_axis',(1.,0.,0.));
#181=DIRECTION('center_axis',(0.,0.,1.));
#182=DIRECTION('ref_axis',(1.,0.,0.));
#183=DIRECTION('center_axis',(0.,0.,-1.));
#184=DIRECTION('ref_axis',(-1.,0.,0.));
#185=CARTESIAN_POINT('',(0.,0.,0.));
#186=CARTESIAN_POINT('Origin',(0.,0.,-0.015));
#187=CARTESIAN_POINT('',(2.425,-2.96976848793233E-16,0.));
#188=CARTESIAN_POINT('Origin',(0.,0.,0.));
#189=CARTESIAN_POINT('',(2.455,3.00650789190675E-16,-0.03));
#190=CARTESIAN_POINT('Origin',(0.,0.,-0.03));
#191=CARTESIAN_POINT('Origin',(0.,0.,0.));
#192=CARTESIAN_POINT('',(2.455,-3.00650789190675E-16,-0.133));
#193=CARTESIAN_POINT('Origin',(0.,0.,-0.133));
#194=CARTESIAN_POINT('Origin',(0.,0.,0.));
#195=CARTESIAN_POINT('',(0.875,1.07156594925393E-16,0.));
#196=CARTESIAN_POINT('Origin',(0.,0.,0.));
#197=CARTESIAN_POINT('',(-1.65625,0.,0.));
#198=CARTESIAN_POINT('Origin',(-2.,0.,0.));
#199=CARTESIAN_POINT('',(2.34375,0.,0.));
#200=CARTESIAN_POINT('Origin',(2.,0.,0.));
#201=CARTESIAN_POINT('Origin',(0.,0.,-0.163));
#202=CARTESIAN_POINT('',(2.395,2.93302908395791E-16,-0.193));
#203=CARTESIAN_POINT('Origin',(0.,0.,-0.193));
#204=CARTESIAN_POINT('Origin',(0.,0.,-0.193));
#205=CARTESIAN_POINT('',(0.875,1.07156594925393E-16,-0.193));
#206=CARTESIAN_POINT('Origin',(0.,0.,-0.193));
#207=CARTESIAN_POINT('',(-2.17597765960147,-2.15510477552381E-17,-0.193));
#208=CARTESIAN_POINT('Origin',(-2.,0.,-0.193));
#209=CARTESIAN_POINT('',(1.82402234039853,-2.15510477552381E-17,-0.193));
#210=CARTESIAN_POINT('Origin',(2.,0.,-0.193));
#211=CARTESIAN_POINT('Origin',(2.,0.,-0.0988597849955555));
#212=CARTESIAN_POINT('Origin',(-2.,0.,-0.0988597849955555));
#213=CARTESIAN_POINT('Origin',(0.,0.,0.));
#214=UNCERTAINTY_MEASURE_WITH_UNIT(LENGTH_MEASURE(0.000393700787401575),
#218,'DISTANCE_ACCURACY_VALUE',
'Maximum model space distance between geometric entities at asserted c
onnectivities');
#215=UNCERTAINTY_MEASURE_WITH_UNIT(LENGTH_MEASURE(1.E-6),#219,
'DISTANCE_ACCURACY_VALUE',
'Maximum model space distance between geometric entities at asserted c
onnectivities');
#216=(
GEOMETRIC_REPRESENTATION_CONTEXT(3)
GLOBAL_UNCERTAINTY_ASSIGNED_CONTEXT((#214))
GLOBAL_UNIT_ASSIGNED_CONTEXT((#218,#224,#221))
REPRESENTATION_CONTEXT('','3D')
);
#217=(
GEOMETRIC_REPRESENTATION_CONTEXT(3)
GLOBAL_UNCERTAINTY_ASSIGNED_CONTEXT((#215))
GLOBAL_UNIT_ASSIGNED_CONTEXT((#219,#224,#221))
REPRESENTATION_CONTEXT('','3D')
);
#218=(
CONVERSION_BASED_UNIT('__CONSTANT UNIT inch',#220)
LENGTH_UNIT()
NAMED_UNIT(#223)
);
#219=(
LENGTH_UNIT()
NAMED_UNIT(*)
SI_UNIT(.MILLI.,.METRE.)
);
#220=LENGTH_MEASURE_WITH_UNIT(LENGTH_MEASURE(25.4),#219);
#221=(
NAMED_UNIT(*)
SI_UNIT($,.STERADIAN.)
SOLID_ANGLE_UNIT()
);
#222=DIMENSIONAL_EXPONENTS(0.,0.,0.,0.,0.,0.,0.);
#223=DIMENSIONAL_EXPONENTS(1.,0.,0.,0.,0.,0.,0.);
#224=(
CONVERSION_BASED_UNIT('degree',#226)
NAMED_UNIT(#222)
PLANE_ANGLE_UNIT()
);
#225=(
NAMED_UNIT(*)
PLANE_ANGLE_UNIT()
SI_UNIT($,.RADIAN.)
);
#226=PLANE_ANGLE_MEASURE_WITH_UNIT(PLANE_ANGLE_MEASURE(0.01745329252),#225);
#227=SHAPE_DEFINITION_REPRESENTATION(#228,#229);
#228=PRODUCT_DEFINITION_SHAPE('',$,#231);
#229=SHAPE_REPRESENTATION('',(#128),#216);
#230=PRODUCT_DEFINITION_CONTEXT('part definition',#235,'design');
#231=PRODUCT_DEFINITION('17011','17011',#232,#230);
#232=PRODUCT_DEFINITION_FORMATION('',$,#237);
#233=PRODUCT_RELATED_PRODUCT_CATEGORY('17011','17011',(#237));
#234=APPLICATION_PROTOCOL_DEFINITION('international standard',
'automotive_design',2009,#235);
#235=APPLICATION_CONTEXT(
'Core Data for Automotive Mechanical Design Process');
#236=PRODUCT_CONTEXT('part definition',#235,'mechanical');
#237=PRODUCT('17011','17011','WEAR PLATE',(#236));
#238=PRESENTATION_STYLE_ASSIGNMENT((#239));
#239=SURFACE_STYLE_USAGE(.BOTH.,#240);
#240=SURFACE_SIDE_STYLE('',(#241));
#241=SURFACE_STYLE_FILL_AREA(#242);
#242=FILL_AREA_STYLE('',(#243));
#243=FILL_AREA_STYLE_COLOUR('',#244);
#244=COLOUR_RGB('',0.549019607843137,0.549019607843137,0.607843137254902);
ENDSEC;
END-ISO-10303-21;
