ISO-10303-21;
HEADER;
/* Generated by software containing ST-Developer
 * from STEP Tools, Inc. (www.steptools.com) 
 */

FILE_DESCRIPTION(
/* description */ ('WEAR PLATE'),
/* implementation_level */ '2;1');

FILE_NAME(
/* name */ 'E:\\1-3D\\STEP\\18004.stp',
/* time_stamp */ '2016-12-13T12:57:47-05:00',
/* author */ ('MJC'),
/* organization */ (''),
/* preprocessor_version */ 'ST-DEVELOPER v16.5',
/* originating_system */ 'Autodesk Inventor 2017',
/* authorisation */ '');

FILE_SCHEMA (('AUTOMOTIVE_DESIGN { 1 0 10303 214 3 1 1 }'));
ENDSEC;

DATA;
#10=MECHANICAL_DESIGN_GEOMETRIC_PRESENTATION_REPRESENTATION('',(#13),#257);
#11=SHAPE_REPRESENTATION_RELATIONSHIP('SRR','None',#269,#12);
#12=ADVANCED_BREP_SHAPE_REPRESENTATION('',(#14),#256);
#13=STYLED_ITEM('',(#278),#14);
#14=MANIFOLD_SOLID_BREP('Solid1',#143);
#15=PLANE('',#156);
#16=PLANE('',#162);
#17=CYLINDRICAL_SURFACE('',#154,3.);
#18=CYLINDRICAL_SURFACE('',#168,0.203125);
#19=CYLINDRICAL_SURFACE('',#171,0.203125);
#20=CYLINDRICAL_SURFACE('',#172,1.125);
#21=FACE_BOUND('',#46,.T.);
#22=FACE_BOUND('',#48,.T.);
#23=FACE_BOUND('',#50,.T.);
#24=FACE_BOUND('',#51,.T.);
#25=FACE_BOUND('',#52,.T.);
#26=FACE_BOUND('',#54,.T.);
#27=FACE_BOUND('',#56,.T.);
#28=FACE_BOUND('',#57,.T.);
#29=FACE_BOUND('',#58,.T.);
#30=FACE_BOUND('',#60,.T.);
#31=FACE_BOUND('',#62,.T.);
#32=FACE_BOUND('',#64,.T.);
#33=FACE_BOUND('',#66,.T.);
#34=FACE_BOUND('',#68,.T.);
#35=FACE_OUTER_BOUND('',#45,.T.);
#36=FACE_OUTER_BOUND('',#47,.T.);
#37=FACE_OUTER_BOUND('',#49,.T.);
#38=FACE_OUTER_BOUND('',#53,.T.);
#39=FACE_OUTER_BOUND('',#55,.T.);
#40=FACE_OUTER_BOUND('',#59,.T.);
#41=FACE_OUTER_BOUND('',#61,.T.);
#42=FACE_OUTER_BOUND('',#63,.T.);
#43=FACE_OUTER_BOUND('',#65,.T.);
#44=FACE_OUTER_BOUND('',#67,.T.);
#45=EDGE_LOOP('',(#105));
#46=EDGE_LOOP('',(#106));
#47=EDGE_LOOP('',(#107));
#48=EDGE_LOOP('',(#108));
#49=EDGE_LOOP('',(#109));
#50=EDGE_LOOP('',(#110));
#51=EDGE_LOOP('',(#111));
#52=EDGE_LOOP('',(#112));
#53=EDGE_LOOP('',(#113));
#54=EDGE_LOOP('',(#114));
#55=EDGE_LOOP('',(#115));
#56=EDGE_LOOP('',(#116));
#57=EDGE_LOOP('',(#117));
#58=EDGE_LOOP('',(#118));
#59=EDGE_LOOP('',(#119));
#60=EDGE_LOOP('',(#120));
#61=EDGE_LOOP('',(#121));
#62=EDGE_LOOP('',(#122));
#63=EDGE_LOOP('',(#123));
#64=EDGE_LOOP('',(#124));
#65=EDGE_LOOP('',(#125));
#66=EDGE_LOOP('',(#126));
#67=EDGE_LOOP('',(#127));
#68=EDGE_LOOP('',(#128));
#69=CIRCLE('',#152,2.875);
#70=CIRCLE('',#153,3.);
#71=CIRCLE('',#155,3.);
#72=CIRCLE('',#157,1.125);
#73=CIRCLE('',#158,0.203125);
#74=CIRCLE('',#159,0.203125);
#75=CIRCLE('',#161,2.97);
#76=CIRCLE('',#163,1.125);
#77=CIRCLE('',#164,0.390625);
#78=CIRCLE('',#165,0.390625);
#79=CIRCLE('',#167,0.203125);
#80=CIRCLE('',#170,0.203125);
#81=VERTEX_POINT('',#221);
#82=VERTEX_POINT('',#223);
#83=VERTEX_POINT('',#226);
#84=VERTEX_POINT('',#229);
#85=VERTEX_POINT('',#231);
#86=VERTEX_POINT('',#233);
#87=VERTEX_POINT('',#236);
#88=VERTEX_POINT('',#239);
#89=VERTEX_POINT('',#241);
#90=VERTEX_POINT('',#243);
#91=VERTEX_POINT('',#246);
#92=VERTEX_POINT('',#250);
#93=EDGE_CURVE('',#81,#81,#69,.T.);
#94=EDGE_CURVE('',#82,#82,#70,.T.);
#95=EDGE_CURVE('',#83,#83,#71,.T.);
#96=EDGE_CURVE('',#84,#84,#72,.T.);
#97=EDGE_CURVE('',#85,#85,#73,.T.);
#98=EDGE_CURVE('',#86,#86,#74,.T.);
#99=EDGE_CURVE('',#87,#87,#75,.T.);
#100=EDGE_CURVE('',#88,#88,#76,.T.);
#101=EDGE_CURVE('',#89,#89,#77,.T.);
#102=EDGE_CURVE('',#90,#90,#78,.T.);
#103=EDGE_CURVE('',#91,#91,#79,.T.);
#104=EDGE_CURVE('',#92,#92,#80,.T.);
#105=ORIENTED_EDGE('',*,*,#93,.T.);
#106=ORIENTED_EDGE('',*,*,#94,.T.);
#107=ORIENTED_EDGE('',*,*,#95,.F.);
#108=ORIENTED_EDGE('',*,*,#94,.F.);
#109=ORIENTED_EDGE('',*,*,#93,.F.);
#110=ORIENTED_EDGE('',*,*,#96,.T.);
#111=ORIENTED_EDGE('',*,*,#97,.T.);
#112=ORIENTED_EDGE('',*,*,#98,.T.);
#113=ORIENTED_EDGE('',*,*,#95,.T.);
#114=ORIENTED_EDGE('',*,*,#99,.T.);
#115=ORIENTED_EDGE('',*,*,#99,.F.);
#116=ORIENTED_EDGE('',*,*,#100,.F.);
#117=ORIENTED_EDGE('',*,*,#101,.T.);
#118=ORIENTED_EDGE('',*,*,#102,.T.);
#119=ORIENTED_EDGE('',*,*,#102,.F.);
#120=ORIENTED_EDGE('',*,*,#103,.F.);
#121=ORIENTED_EDGE('',*,*,#98,.F.);
#122=ORIENTED_EDGE('',*,*,#103,.T.);
#123=ORIENTED_EDGE('',*,*,#101,.F.);
#124=ORIENTED_EDGE('',*,*,#104,.F.);
#125=ORIENTED_EDGE('',*,*,#97,.F.);
#126=ORIENTED_EDGE('',*,*,#104,.T.);
#127=ORIENTED_EDGE('',*,*,#96,.F.);
#128=ORIENTED_EDGE('',*,*,#100,.T.);
#129=CONICAL_SURFACE('',#151,2.9375,45.);
#130=CONICAL_SURFACE('',#160,2.985,45.0000000000003);
#131=CONICAL_SURFACE('',#166,0.296875,41.);
#132=CONICAL_SURFACE('',#169,0.296875,41.);
#133=ADVANCED_FACE('',(#35,#21),#129,.T.);
#134=ADVANCED_FACE('',(#36,#22),#17,.T.);
#135=ADVANCED_FACE('',(#37,#23,#24,#25),#15,.T.);
#136=ADVANCED_FACE('',(#38,#26),#130,.T.);
#137=ADVANCED_FACE('',(#39,#27,#28,#29),#16,.T.);
#138=ADVANCED_FACE('',(#40,#30),#131,.F.);
#139=ADVANCED_FACE('',(#41,#31),#18,.F.);
#140=ADVANCED_FACE('',(#42,#32),#132,.F.);
#141=ADVANCED_FACE('',(#43,#33),#19,.F.);
#142=ADVANCED_FACE('',(#44,#34),#20,.F.);
#143=CLOSED_SHELL('',(#133,#134,#135,#136,#137,#138,#139,#140,#141,#142));
#144=DATE_TIME_ROLE('creation_date');
#145=APPLIED_DATE_AND_TIME_ASSIGNMENT(#146,#144,(#271));
#146=DATE_AND_TIME(#147,#148);
#147=CALENDAR_DATE(2010,6,7);
#148=LOCAL_TIME(17,57,12.,#149);
#149=COORDINATED_UNIVERSAL_TIME_OFFSET(0,0,.BEHIND.);
#150=AXIS2_PLACEMENT_3D('placement',#219,#173,#174);
#151=AXIS2_PLACEMENT_3D('',#220,#175,#176);
#152=AXIS2_PLACEMENT_3D('',#222,#177,#178);
#153=AXIS2_PLACEMENT_3D('',#224,#179,#180);
#154=AXIS2_PLACEMENT_3D('',#225,#181,#182);
#155=AXIS2_PLACEMENT_3D('',#227,#183,#184);
#156=AXIS2_PLACEMENT_3D('',#228,#185,#186);
#157=AXIS2_PLACEMENT_3D('',#230,#187,#188);
#158=AXIS2_PLACEMENT_3D('',#232,#189,#190);
#159=AXIS2_PLACEMENT_3D('',#234,#191,#192);
#160=AXIS2_PLACEMENT_3D('',#235,#193,#194);
#161=AXIS2_PLACEMENT_3D('',#237,#195,#196);
#162=AXIS2_PLACEMENT_3D('',#238,#197,#198);
#163=AXIS2_PLACEMENT_3D('',#240,#199,#200);
#164=AXIS2_PLACEMENT_3D('',#242,#201,#202);
#165=AXIS2_PLACEMENT_3D('',#244,#203,#204);
#166=AXIS2_PLACEMENT_3D('',#245,#205,#206);
#167=AXIS2_PLACEMENT_3D('',#247,#207,#208);
#168=AXIS2_PLACEMENT_3D('',#248,#209,#210);
#169=AXIS2_PLACEMENT_3D('',#249,#211,#212);
#170=AXIS2_PLACEMENT_3D('',#251,#213,#214);
#171=AXIS2_PLACEMENT_3D('',#252,#215,#216);
#172=AXIS2_PLACEMENT_3D('',#253,#217,#218);
#173=DIRECTION('axis',(0.,0.,1.));
#174=DIRECTION('refdir',(1.,0.,0.));
#175=DIRECTION('center_axis',(1.,0.,0.));
#176=DIRECTION('ref_axis',(0.,-1.,0.));
#177=DIRECTION('center_axis',(1.,0.,0.));
#178=DIRECTION('ref_axis',(0.,-1.,0.));
#179=DIRECTION('center_axis',(-1.,0.,0.));
#180=DIRECTION('ref_axis',(0.,-1.,0.));
#181=DIRECTION('center_axis',(1.,0.,0.));
#182=DIRECTION('ref_axis',(0.,1.,0.));
#183=DIRECTION('center_axis',(1.,0.,0.));
#184=DIRECTION('ref_axis',(0.,-1.,0.));
#185=DIRECTION('center_axis',(-1.,0.,0.));
#186=DIRECTION('ref_axis',(0.,0.,1.));
#187=DIRECTION('center_axis',(1.,0.,0.));
#188=DIRECTION('ref_axis',(0.,1.,0.));
#189=DIRECTION('center_axis',(1.,0.,0.));
#190=DIRECTION('ref_axis',(0.,0.,-1.));
#191=DIRECTION('center_axis',(1.,0.,0.));
#192=DIRECTION('ref_axis',(0.,0.,-1.));
#193=DIRECTION('center_axis',(-1.,0.,0.));
#194=DIRECTION('ref_axis',(0.,-1.,0.));
#195=DIRECTION('center_axis',(-1.,0.,0.));
#196=DIRECTION('ref_axis',(0.,-1.,0.));
#197=DIRECTION('center_axis',(1.,0.,0.));
#198=DIRECTION('ref_axis',(0.,0.,-1.));
#199=DIRECTION('center_axis',(1.,0.,0.));
#200=DIRECTION('ref_axis',(0.,1.,0.));
#201=DIRECTION('center_axis',(-1.,0.,0.));
#202=DIRECTION('ref_axis',(0.,0.,-1.));
#203=DIRECTION('center_axis',(-1.,0.,0.));
#204=DIRECTION('ref_axis',(0.,0.,-1.));
#205=DIRECTION('center_axis',(1.,0.,0.));
#206=DIRECTION('ref_axis',(0.,0.,-1.));
#207=DIRECTION('center_axis',(1.,0.,0.));
#208=DIRECTION('ref_axis',(0.,0.,-1.));
#209=DIRECTION('center_axis',(1.,0.,0.));
#210=DIRECTION('ref_axis',(0.,0.,-1.));
#211=DIRECTION('center_axis',(1.,0.,0.));
#212=DIRECTION('ref_axis',(0.,0.,-1.));
#213=DIRECTION('center_axis',(1.,0.,0.));
#214=DIRECTION('ref_axis',(0.,0.,-1.));
#215=DIRECTION('center_axis',(1.,0.,0.));
#216=DIRECTION('ref_axis',(0.,0.,-1.));
#217=DIRECTION('center_axis',(1.,0.,0.));
#218=DIRECTION('ref_axis',(0.,1.,0.));
#219=CARTESIAN_POINT('',(0.,0.,0.));
#220=CARTESIAN_POINT('Origin',(0.0625,0.,0.));
#221=CARTESIAN_POINT('',(0.,2.875,3.52085954754864E-16));
#222=CARTESIAN_POINT('Origin',(0.,0.,0.));
#223=CARTESIAN_POINT('',(0.125,3.,-3.67394039744206E-16));
#224=CARTESIAN_POINT('Origin',(0.125,0.,0.));
#225=CARTESIAN_POINT('Origin',(0.125,0.,0.));
#226=CARTESIAN_POINT('',(0.22,3.,3.67394039744206E-16));
#227=CARTESIAN_POINT('Origin',(0.22,0.,0.));
#228=CARTESIAN_POINT('Origin',(0.,2.0625,0.));
#229=CARTESIAN_POINT('',(0.,1.125,0.));
#230=CARTESIAN_POINT('Origin',(0.,0.,0.));
#231=CARTESIAN_POINT('',(0.,-2.48756381076806E-17,2.640625));
#232=CARTESIAN_POINT('Origin',(0.,0.,2.4375));
#233=CARTESIAN_POINT('',(0.,-2.48756381076806E-17,-2.234375));
#234=CARTESIAN_POINT('Origin',(0.,0.,-2.4375));
#235=CARTESIAN_POINT('Origin',(0.235,0.,0.));
#236=CARTESIAN_POINT('',(0.25,2.97,-3.63720099346764E-16));
#237=CARTESIAN_POINT('Origin',(0.25,0.,0.));
#238=CARTESIAN_POINT('Origin',(0.25,2.0625,0.));
#239=CARTESIAN_POINT('',(0.249999999999999,1.125,0.));
#240=CARTESIAN_POINT('Origin',(0.249999999999999,0.,0.));
#241=CARTESIAN_POINT('',(0.25,0.,2.046875));
#242=CARTESIAN_POINT('Origin',(0.25,0.,2.4375));
#243=CARTESIAN_POINT('',(0.25,0.,-2.828125));
#244=CARTESIAN_POINT('Origin',(0.25,0.,-2.4375));
#245=CARTESIAN_POINT('Origin',(0.14215296182303,0.,-2.4375));
#246=CARTESIAN_POINT('',(0.0343059236460603,0.,-2.640625));
#247=CARTESIAN_POINT('Origin',(0.0343059236460602,0.,-2.4375));
#248=CARTESIAN_POINT('Origin',(-8.23896342317482,0.,-2.4375));
#249=CARTESIAN_POINT('Origin',(0.14215296182303,0.,2.4375));
#250=CARTESIAN_POINT('',(0.0343059236460603,0.,2.234375));
#251=CARTESIAN_POINT('Origin',(0.0343059236460602,0.,2.4375));
#252=CARTESIAN_POINT('Origin',(-8.23896342317482,0.,2.4375));
#253=CARTESIAN_POINT('Origin',(0.125,0.,0.));
#254=UNCERTAINTY_MEASURE_WITH_UNIT(LENGTH_MEASURE(0.000393700787401575),
#258,'DISTANCE_ACCURACY_VALUE',
'Maximum model space distance between geometric entities at asserted c
onnectivities');
#255=UNCERTAINTY_MEASURE_WITH_UNIT(LENGTH_MEASURE(1.E-6),#259,
'DISTANCE_ACCURACY_VALUE',
'Maximum model space distance between geometric entities at asserted c
onnectivities');
#256=(
GEOMETRIC_REPRESENTATION_CONTEXT(3)
GLOBAL_UNCERTAINTY_ASSIGNED_CONTEXT((#254))
GLOBAL_UNIT_ASSIGNED_CONTEXT((#258,#264,#261))
REPRESENTATION_CONTEXT('','3D')
);
#257=(
GEOMETRIC_REPRESENTATION_CONTEXT(3)
GLOBAL_UNCERTAINTY_ASSIGNED_CONTEXT((#255))
GLOBAL_UNIT_ASSIGNED_CONTEXT((#259,#264,#261))
REPRESENTATION_CONTEXT('','3D')
);
#258=(
CONVERSION_BASED_UNIT('__CONSTANT UNIT inch',#260)
LENGTH_UNIT()
NAMED_UNIT(#263)
);
#259=(
LENGTH_UNIT()
NAMED_UNIT(*)
SI_UNIT(.MILLI.,.METRE.)
);
#260=LENGTH_MEASURE_WITH_UNIT(LENGTH_MEASURE(25.4),#259);
#261=(
NAMED_UNIT(*)
SI_UNIT($,.STERADIAN.)
SOLID_ANGLE_UNIT()
);
#262=DIMENSIONAL_EXPONENTS(0.,0.,0.,0.,0.,0.,0.);
#263=DIMENSIONAL_EXPONENTS(1.,0.,0.,0.,0.,0.,0.);
#264=(
CONVERSION_BASED_UNIT('degree',#266)
NAMED_UNIT(#262)
PLANE_ANGLE_UNIT()
);
#265=(
NAMED_UNIT(*)
PLANE_ANGLE_UNIT()
SI_UNIT($,.RADIAN.)
);
#266=PLANE_ANGLE_MEASURE_WITH_UNIT(PLANE_ANGLE_MEASURE(0.01745329252),#265);
#267=SHAPE_DEFINITION_REPRESENTATION(#268,#269);
#268=PRODUCT_DEFINITION_SHAPE('',$,#271);
#269=SHAPE_REPRESENTATION('',(#150),#256);
#270=PRODUCT_DEFINITION_CONTEXT('part definition',#275,'design');
#271=PRODUCT_DEFINITION('18004','18004',#272,#270);
#272=PRODUCT_DEFINITION_FORMATION('',$,#277);
#273=PRODUCT_RELATED_PRODUCT_CATEGORY('18004','18004',(#277));
#274=APPLICATION_PROTOCOL_DEFINITION('international standard',
'automotive_design',2009,#275);
#275=APPLICATION_CONTEXT(
'Core Data for Automotive Mechanical Design Process');
#276=PRODUCT_CONTEXT('part definition',#275,'mechanical');
#277=PRODUCT('18004','18004','WEAR PLATE',(#276));
#278=PRESENTATION_STYLE_ASSIGNMENT((#279));
#279=SURFACE_STYLE_USAGE(.BOTH.,#280);
#280=SURFACE_SIDE_STYLE('',(#281));
#281=SURFACE_STYLE_FILL_AREA(#282);
#282=FILL_AREA_STYLE('',(#283));
#283=FILL_AREA_STYLE_COLOUR('',#284);
#284=COLOUR_RGB('',0.549019607843137,0.549019607843137,0.607843137254902);
ENDSEC;
END-ISO-10303-21;
