ISO-10303-21;
HEADER;
/* Generated by software containing ST-Developer
 * from STEP Tools, Inc. (www.steptools.com) 
 */

FILE_DESCRIPTION(
/* description */ ('CAM ARM PIN, FOR 1-1/2" & 2" CAM COUPLERS'),
/* implementation_level */ '2;1');

FILE_NAME(
/* name */ 'E:\\1-3D\\STEP\\200P.stp',
/* time_stamp */ '2022-10-20T14:53:00-04:00',
/* author */ ('ETQ'),
/* organization */ (''),
/* preprocessor_version */ 'ST-DEVELOPER v18.1',
/* originating_system */ 'Autodesk Inventor 2022',
/* authorisation */ '');

FILE_SCHEMA (('AUTOMOTIVE_DESIGN { 1 0 10303 214 3 1 1 }'));
ENDSEC;

DATA;
#10=MECHANICAL_DESIGN_GEOMETRIC_PRESENTATION_REPRESENTATION('',(#13),#505);
#11=SHAPE_REPRESENTATION_RELATIONSHIP('SRR','None',#516,#12);
#12=ADVANCED_BREP_SHAPE_REPRESENTATION('',(#14),#504);
#13=STYLED_ITEM('',(#525),#14);
#14=MANIFOLD_SOLID_BREP('Solid1',#276);
#15=CONICAL_SURFACE('',#323,0.11,0.78539816339745);
#16=CONICAL_SURFACE('',#326,0.1045,0.785398163397448);
#17=CYLINDRICAL_SURFACE('',#312,0.13);
#18=CYLINDRICAL_SURFACE('',#314,0.13);
#19=CYLINDRICAL_SURFACE('',#318,0.13);
#20=CYLINDRICAL_SURFACE('',#324,0.1245);
#21=CIRCLE('',#303,0.1245);
#22=CIRCLE('',#304,0.13);
#23=CIRCLE('',#306,0.13);
#24=CIRCLE('',#307,0.1245);
#25=CIRCLE('',#309,0.1245);
#26=CIRCLE('',#310,0.1245);
#27=CIRCLE('',#311,0.13);
#28=CIRCLE('',#313,0.13);
#29=CIRCLE('',#315,0.13);
#30=CIRCLE('',#319,0.13);
#31=CIRCLE('',#320,0.13);
#32=CIRCLE('',#322,0.0900000000000002);
#33=CIRCLE('',#325,0.1245);
#34=CIRCLE('',#327,0.0845000000000004);
#35=FACE_OUTER_BOUND('',#52,.T.);
#36=FACE_OUTER_BOUND('',#53,.T.);
#37=FACE_OUTER_BOUND('',#54,.T.);
#38=FACE_OUTER_BOUND('',#55,.T.);
#39=FACE_OUTER_BOUND('',#56,.T.);
#40=FACE_OUTER_BOUND('',#57,.T.);
#41=FACE_OUTER_BOUND('',#58,.T.);
#42=FACE_OUTER_BOUND('',#59,.T.);
#43=FACE_OUTER_BOUND('',#60,.T.);
#44=FACE_OUTER_BOUND('',#61,.T.);
#45=FACE_OUTER_BOUND('',#62,.T.);
#46=FACE_OUTER_BOUND('',#63,.T.);
#47=FACE_OUTER_BOUND('',#64,.T.);
#48=FACE_OUTER_BOUND('',#65,.T.);
#49=FACE_OUTER_BOUND('',#66,.T.);
#50=FACE_OUTER_BOUND('',#67,.T.);
#51=FACE_OUTER_BOUND('',#68,.T.);
#52=EDGE_LOOP('',(#172,#173,#174,#175));
#53=EDGE_LOOP('',(#176,#177,#178,#179));
#54=EDGE_LOOP('',(#180,#181,#182,#183));
#55=EDGE_LOOP('',(#184,#185,#186,#187));
#56=EDGE_LOOP('',(#188,#189,#190,#191));
#57=EDGE_LOOP('',(#192,#193,#194,#195));
#58=EDGE_LOOP('',(#196,#197,#198,#199,#200));
#59=EDGE_LOOP('',(#201,#202,#203,#204));
#60=EDGE_LOOP('',(#205,#206,#207,#208));
#61=EDGE_LOOP('',(#209,#210,#211,#212));
#62=EDGE_LOOP('',(#213,#214,#215,#216));
#63=EDGE_LOOP('',(#217,#218,#219,#220,#221));
#64=EDGE_LOOP('',(#222));
#65=EDGE_LOOP('',(#223,#224,#225,#226,#227,#228,#229,#230,#231,#232,#233,
#234,#235));
#66=EDGE_LOOP('',(#236,#237,#238,#239,#240,#241,#242));
#67=EDGE_LOOP('',(#243,#244,#245,#246));
#68=EDGE_LOOP('',(#247));
#69=LINE('',#419,#87);
#70=LINE('',#421,#88);
#71=LINE('',#422,#89);
#72=LINE('',#429,#90);
#73=LINE('',#430,#91);
#74=LINE('',#438,#92);
#75=LINE('',#440,#93);
#76=LINE('',#441,#94);
#77=LINE('',#448,#95);
#78=LINE('',#449,#96);
#79=LINE('',#454,#97);
#80=LINE('',#459,#98);
#81=LINE('',#468,#99);
#82=LINE('',#473,#100);
#83=LINE('',#479,#101);
#84=LINE('',#492,#102);
#85=LINE('',#496,#103);
#86=LINE('',#500,#104);
#87=VECTOR('',#333,0.393700787401575);
#88=VECTOR('',#334,0.393700787401575);
#89=VECTOR('',#335,0.393700787401575);
#90=VECTOR('',#338,0.393700787401575);
#91=VECTOR('',#339,0.393700787401575);
#92=VECTOR('',#342,0.393700787401575);
#93=VECTOR('',#343,0.393700787401575);
#94=VECTOR('',#344,0.393700787401575);
#95=VECTOR('',#347,0.393700787401575);
#96=VECTOR('',#348,0.393700787401575);
#97=VECTOR('',#353,0.393700787401575);
#98=VECTOR('',#360,0.393700787401575);
#99=VECTOR('',#373,0.393700787401575);
#100=VECTOR('',#380,0.393700787401575);
#101=VECTOR('',#383,0.393700787401575);
#102=VECTOR('',#398,0.11);
#103=VECTOR('',#403,0.1245);
#104=VECTOR('',#408,0.1045);
#105=(
BOUNDED_CURVE()
B_SPLINE_CURVE(2,(#415,#416,#417),.UNSPECIFIED.,.F.,.F.)
B_SPLINE_CURVE_WITH_KNOTS((3,3),(0.,0.021254880444206),.UNSPECIFIED.)
CURVE()
GEOMETRIC_REPRESENTATION_ITEM()
RATIONAL_B_SPLINE_CURVE((1.,1.0003071827781,1.))
REPRESENTATION_ITEM('')
);
#106=(
BOUNDED_CURVE()
B_SPLINE_CURVE(2,(#425,#426,#427),.UNSPECIFIED.,.F.,.F.)
B_SPLINE_CURVE_WITH_KNOTS((3,3),(0.,0.0212548804442061),.UNSPECIFIED.)
CURVE()
GEOMETRIC_REPRESENTATION_ITEM()
RATIONAL_B_SPLINE_CURVE((1.,1.00030718276882,1.))
REPRESENTATION_ITEM('')
);
#107=(
BOUNDED_CURVE()
B_SPLINE_CURVE(2,(#434,#435,#436),.UNSPECIFIED.,.F.,.F.)
B_SPLINE_CURVE_WITH_KNOTS((3,3),(0.,0.021254880444206),.UNSPECIFIED.)
CURVE()
GEOMETRIC_REPRESENTATION_ITEM()
RATIONAL_B_SPLINE_CURVE((1.,1.00030718277319,1.))
REPRESENTATION_ITEM('')
);
#108=(
BOUNDED_CURVE()
B_SPLINE_CURVE(2,(#444,#445,#446),.UNSPECIFIED.,.F.,.F.)
B_SPLINE_CURVE_WITH_KNOTS((3,3),(0.,0.021254880444206),.UNSPECIFIED.)
CURVE()
GEOMETRIC_REPRESENTATION_ITEM()
RATIONAL_B_SPLINE_CURVE((1.,1.00030718277535,1.))
REPRESENTATION_ITEM('')
);
#109=(
BOUNDED_CURVE()
B_SPLINE_CURVE(2,(#476,#477,#478),.UNSPECIFIED.,.F.,.F.)
B_SPLINE_CURVE_WITH_KNOTS((3,3),(0.143497623797646,0.160957238215738),
 .UNSPECIFIED.)
CURVE()
GEOMETRIC_REPRESENTATION_ITEM()
RATIONAL_B_SPLINE_CURVE((1.00501054519993,1.0028100936308,1.))
REPRESENTATION_ITEM('')
);
#110=(
BOUNDED_CURVE()
B_SPLINE_CURVE(2,(#481,#482,#483),.UNSPECIFIED.,.F.,.F.)
B_SPLINE_CURVE_WITH_KNOTS((3,3),(0.,0.0174596144177437),.UNSPECIFIED.)
CURVE()
GEOMETRIC_REPRESENTATION_ITEM()
RATIONAL_B_SPLINE_CURVE((1.,1.00281009363073,1.00501054519984))
REPRESENTATION_ITEM('')
);
#111=VERTEX_POINT('',#413);
#112=VERTEX_POINT('',#414);
#113=VERTEX_POINT('',#418);
#114=VERTEX_POINT('',#420);
#115=VERTEX_POINT('',#424);
#116=VERTEX_POINT('',#428);
#117=VERTEX_POINT('',#432);
#118=VERTEX_POINT('',#433);
#119=VERTEX_POINT('',#437);
#120=VERTEX_POINT('',#439);
#121=VERTEX_POINT('',#443);
#122=VERTEX_POINT('',#447);
#123=VERTEX_POINT('',#451);
#124=VERTEX_POINT('',#453);
#125=VERTEX_POINT('',#457);
#126=VERTEX_POINT('',#462);
#127=VERTEX_POINT('',#467);
#128=VERTEX_POINT('',#471);
#129=VERTEX_POINT('',#475);
#130=VERTEX_POINT('',#485);
#131=VERTEX_POINT('',#489);
#132=VERTEX_POINT('',#494);
#133=VERTEX_POINT('',#498);
#134=EDGE_CURVE('',#111,#112,#105,.T.);
#135=EDGE_CURVE('',#113,#111,#69,.T.);
#136=EDGE_CURVE('',#114,#113,#70,.T.);
#137=EDGE_CURVE('',#112,#114,#71,.T.);
#138=EDGE_CURVE('',#115,#111,#106,.T.);
#139=EDGE_CURVE('',#116,#115,#72,.T.);
#140=EDGE_CURVE('',#113,#116,#73,.T.);
#141=EDGE_CURVE('',#117,#118,#107,.T.);
#142=EDGE_CURVE('',#119,#117,#74,.T.);
#143=EDGE_CURVE('',#120,#119,#75,.T.);
#144=EDGE_CURVE('',#118,#120,#76,.T.);
#145=EDGE_CURVE('',#121,#117,#108,.T.);
#146=EDGE_CURVE('',#122,#121,#77,.T.);
#147=EDGE_CURVE('',#119,#122,#78,.T.);
#148=EDGE_CURVE('',#123,#119,#21,.T.);
#149=EDGE_CURVE('',#123,#124,#79,.T.);
#150=EDGE_CURVE('',#124,#120,#22,.T.);
#151=EDGE_CURVE('',#116,#125,#23,.T.);
#152=EDGE_CURVE('',#125,#123,#80,.T.);
#153=EDGE_CURVE('',#113,#123,#24,.T.);
#154=EDGE_CURVE('',#126,#113,#25,.T.);
#155=EDGE_CURVE('',#119,#126,#26,.T.);
#156=EDGE_CURVE('',#122,#114,#27,.T.);
#157=EDGE_CURVE('',#124,#127,#81,.T.);
#158=EDGE_CURVE('',#127,#118,#28,.T.);
#159=EDGE_CURVE('',#115,#128,#29,.T.);
#160=EDGE_CURVE('',#128,#125,#82,.T.);
#161=EDGE_CURVE('',#129,#128,#109,.T.);
#162=EDGE_CURVE('',#123,#129,#83,.T.);
#163=EDGE_CURVE('',#127,#129,#110,.T.);
#164=EDGE_CURVE('',#121,#130,#30,.T.);
#165=EDGE_CURVE('',#130,#112,#31,.T.);
#166=EDGE_CURVE('',#131,#131,#32,.T.);
#167=EDGE_CURVE('',#130,#131,#84,.T.);
#168=EDGE_CURVE('',#132,#132,#33,.T.);
#169=EDGE_CURVE('',#132,#126,#85,.T.);
#170=EDGE_CURVE('',#133,#133,#34,.T.);
#171=EDGE_CURVE('',#133,#132,#86,.T.);
#172=ORIENTED_EDGE('',*,*,#134,.F.);
#173=ORIENTED_EDGE('',*,*,#135,.F.);
#174=ORIENTED_EDGE('',*,*,#136,.F.);
#175=ORIENTED_EDGE('',*,*,#137,.F.);
#176=ORIENTED_EDGE('',*,*,#138,.F.);
#177=ORIENTED_EDGE('',*,*,#139,.F.);
#178=ORIENTED_EDGE('',*,*,#140,.F.);
#179=ORIENTED_EDGE('',*,*,#135,.T.);
#180=ORIENTED_EDGE('',*,*,#141,.F.);
#181=ORIENTED_EDGE('',*,*,#142,.F.);
#182=ORIENTED_EDGE('',*,*,#143,.F.);
#183=ORIENTED_EDGE('',*,*,#144,.F.);
#184=ORIENTED_EDGE('',*,*,#145,.F.);
#185=ORIENTED_EDGE('',*,*,#146,.F.);
#186=ORIENTED_EDGE('',*,*,#147,.F.);
#187=ORIENTED_EDGE('',*,*,#142,.T.);
#188=ORIENTED_EDGE('',*,*,#143,.T.);
#189=ORIENTED_EDGE('',*,*,#148,.F.);
#190=ORIENTED_EDGE('',*,*,#149,.T.);
#191=ORIENTED_EDGE('',*,*,#150,.T.);
#192=ORIENTED_EDGE('',*,*,#140,.T.);
#193=ORIENTED_EDGE('',*,*,#151,.T.);
#194=ORIENTED_EDGE('',*,*,#152,.T.);
#195=ORIENTED_EDGE('',*,*,#153,.F.);
#196=ORIENTED_EDGE('',*,*,#136,.T.);
#197=ORIENTED_EDGE('',*,*,#154,.F.);
#198=ORIENTED_EDGE('',*,*,#155,.F.);
#199=ORIENTED_EDGE('',*,*,#147,.T.);
#200=ORIENTED_EDGE('',*,*,#156,.T.);
#201=ORIENTED_EDGE('',*,*,#144,.T.);
#202=ORIENTED_EDGE('',*,*,#150,.F.);
#203=ORIENTED_EDGE('',*,*,#157,.T.);
#204=ORIENTED_EDGE('',*,*,#158,.T.);
#205=ORIENTED_EDGE('',*,*,#139,.T.);
#206=ORIENTED_EDGE('',*,*,#159,.T.);
#207=ORIENTED_EDGE('',*,*,#160,.T.);
#208=ORIENTED_EDGE('',*,*,#151,.F.);
#209=ORIENTED_EDGE('',*,*,#161,.F.);
#210=ORIENTED_EDGE('',*,*,#162,.F.);
#211=ORIENTED_EDGE('',*,*,#152,.F.);
#212=ORIENTED_EDGE('',*,*,#160,.F.);
#213=ORIENTED_EDGE('',*,*,#163,.F.);
#214=ORIENTED_EDGE('',*,*,#157,.F.);
#215=ORIENTED_EDGE('',*,*,#149,.F.);
#216=ORIENTED_EDGE('',*,*,#162,.T.);
#217=ORIENTED_EDGE('',*,*,#137,.T.);
#218=ORIENTED_EDGE('',*,*,#156,.F.);
#219=ORIENTED_EDGE('',*,*,#146,.T.);
#220=ORIENTED_EDGE('',*,*,#164,.T.);
#221=ORIENTED_EDGE('',*,*,#165,.T.);
#222=ORIENTED_EDGE('',*,*,#166,.F.);
#223=ORIENTED_EDGE('',*,*,#134,.T.);
#224=ORIENTED_EDGE('',*,*,#165,.F.);
#225=ORIENTED_EDGE('',*,*,#167,.T.);
#226=ORIENTED_EDGE('',*,*,#166,.T.);
#227=ORIENTED_EDGE('',*,*,#167,.F.);
#228=ORIENTED_EDGE('',*,*,#164,.F.);
#229=ORIENTED_EDGE('',*,*,#145,.T.);
#230=ORIENTED_EDGE('',*,*,#141,.T.);
#231=ORIENTED_EDGE('',*,*,#158,.F.);
#232=ORIENTED_EDGE('',*,*,#163,.T.);
#233=ORIENTED_EDGE('',*,*,#161,.T.);
#234=ORIENTED_EDGE('',*,*,#159,.F.);
#235=ORIENTED_EDGE('',*,*,#138,.T.);
#236=ORIENTED_EDGE('',*,*,#168,.F.);
#237=ORIENTED_EDGE('',*,*,#169,.T.);
#238=ORIENTED_EDGE('',*,*,#154,.T.);
#239=ORIENTED_EDGE('',*,*,#153,.T.);
#240=ORIENTED_EDGE('',*,*,#148,.T.);
#241=ORIENTED_EDGE('',*,*,#155,.T.);
#242=ORIENTED_EDGE('',*,*,#169,.F.);
#243=ORIENTED_EDGE('',*,*,#170,.F.);
#244=ORIENTED_EDGE('',*,*,#171,.T.);
#245=ORIENTED_EDGE('',*,*,#168,.T.);
#246=ORIENTED_EDGE('',*,*,#171,.F.);
#247=ORIENTED_EDGE('',*,*,#170,.T.);
#248=PLANE('',#298);
#249=PLANE('',#299);
#250=PLANE('',#300);
#251=PLANE('',#301);
#252=PLANE('',#302);
#253=PLANE('',#305);
#254=PLANE('',#308);
#255=PLANE('',#316);
#256=PLANE('',#317);
#257=PLANE('',#321);
#258=PLANE('',#328);
#259=ADVANCED_FACE('',(#35),#248,.F.);
#260=ADVANCED_FACE('',(#36),#249,.F.);
#261=ADVANCED_FACE('',(#37),#250,.F.);
#262=ADVANCED_FACE('',(#38),#251,.F.);
#263=ADVANCED_FACE('',(#39),#252,.T.);
#264=ADVANCED_FACE('',(#40),#253,.T.);
#265=ADVANCED_FACE('',(#41),#254,.T.);
#266=ADVANCED_FACE('',(#42),#17,.T.);
#267=ADVANCED_FACE('',(#43),#18,.T.);
#268=ADVANCED_FACE('',(#44),#255,.F.);
#269=ADVANCED_FACE('',(#45),#256,.F.);
#270=ADVANCED_FACE('',(#46),#19,.T.);
#271=ADVANCED_FACE('',(#47),#257,.T.);
#272=ADVANCED_FACE('',(#48),#15,.T.);
#273=ADVANCED_FACE('',(#49),#20,.T.);
#274=ADVANCED_FACE('',(#50),#16,.T.);
#275=ADVANCED_FACE('',(#51),#258,.T.);
#276=CLOSED_SHELL('',(#259,#260,#261,#262,#263,#264,#265,#266,#267,#268,
#269,#270,#271,#272,#273,#274,#275));
#277=DERIVED_UNIT_ELEMENT(#279,1.);
#278=DERIVED_UNIT_ELEMENT(#510,-3.);
#279=(
CONVERSION_BASED_UNIT('gram',#281)
MASS_UNIT()
NAMED_UNIT(#507)
);
#280=(
MASS_UNIT()
NAMED_UNIT(*)
SI_UNIT(.KILO.,.GRAM.)
);
#281=MASS_MEASURE_WITH_UNIT(MASS_MEASURE(0.001),#280);
#282=DERIVED_UNIT((#277,#278));
#283=MEASURE_REPRESENTATION_ITEM('density measure',
POSITIVE_RATIO_MEASURE(8.),#282);
#284=PROPERTY_DEFINITION_REPRESENTATION(#289,#286);
#285=PROPERTY_DEFINITION_REPRESENTATION(#290,#287);
#286=REPRESENTATION('material name',(#288),#504);
#287=REPRESENTATION('density',(#283),#504);
#288=DESCRIPTIVE_REPRESENTATION_ITEM('STAINLESS STEEL, 303',
'STAINLESS STEEL, 303');
#289=PROPERTY_DEFINITION('material property','material name',#518);
#290=PROPERTY_DEFINITION('material property','density of part',#518);
#291=DATE_TIME_ROLE('creation_date');
#292=APPLIED_DATE_AND_TIME_ASSIGNMENT(#293,#291,(#518));
#293=DATE_AND_TIME(#294,#295);
#294=CALENDAR_DATE(1996,14,8);
#295=LOCAL_TIME(0,0,0.,#296);
#296=COORDINATED_UNIVERSAL_TIME_OFFSET(0,0,.BEHIND.);
#297=AXIS2_PLACEMENT_3D('placement',#411,#329,#330);
#298=AXIS2_PLACEMENT_3D('',#412,#331,#332);
#299=AXIS2_PLACEMENT_3D('',#423,#336,#337);
#300=AXIS2_PLACEMENT_3D('',#431,#340,#341);
#301=AXIS2_PLACEMENT_3D('',#442,#345,#346);
#302=AXIS2_PLACEMENT_3D('',#450,#349,#350);
#303=AXIS2_PLACEMENT_3D('',#452,#351,#352);
#304=AXIS2_PLACEMENT_3D('',#455,#354,#355);
#305=AXIS2_PLACEMENT_3D('',#456,#356,#357);
#306=AXIS2_PLACEMENT_3D('',#458,#358,#359);
#307=AXIS2_PLACEMENT_3D('',#460,#361,#362);
#308=AXIS2_PLACEMENT_3D('',#461,#363,#364);
#309=AXIS2_PLACEMENT_3D('',#463,#365,#366);
#310=AXIS2_PLACEMENT_3D('',#464,#367,#368);
#311=AXIS2_PLACEMENT_3D('',#465,#369,#370);
#312=AXIS2_PLACEMENT_3D('',#466,#371,#372);
#313=AXIS2_PLACEMENT_3D('',#469,#374,#375);
#314=AXIS2_PLACEMENT_3D('',#470,#376,#377);
#315=AXIS2_PLACEMENT_3D('',#472,#378,#379);
#316=AXIS2_PLACEMENT_3D('',#474,#381,#382);
#317=AXIS2_PLACEMENT_3D('',#480,#384,#385);
#318=AXIS2_PLACEMENT_3D('',#484,#386,#387);
#319=AXIS2_PLACEMENT_3D('',#486,#388,#389);
#320=AXIS2_PLACEMENT_3D('',#487,#390,#391);
#321=AXIS2_PLACEMENT_3D('',#488,#392,#393);
#322=AXIS2_PLACEMENT_3D('',#490,#394,#395);
#323=AXIS2_PLACEMENT_3D('',#491,#396,#397);
#324=AXIS2_PLACEMENT_3D('',#493,#399,#400);
#325=AXIS2_PLACEMENT_3D('',#495,#401,#402);
#326=AXIS2_PLACEMENT_3D('',#497,#404,#405);
#327=AXIS2_PLACEMENT_3D('',#499,#406,#407);
#328=AXIS2_PLACEMENT_3D('',#501,#409,#410);
#329=DIRECTION('axis',(0.,0.,1.));
#330=DIRECTION('refdir',(1.,0.,0.));
#331=DIRECTION('center_axis',(0.,-0.500000000000003,0.866025403784437));
#332=DIRECTION('ref_axis',(-1.,0.,0.));
#333=DIRECTION('',(-1.,0.,0.));
#334=DIRECTION('',(0.,0.866025403784437,0.500000000000003));
#335=DIRECTION('',(1.,0.,0.));
#336=DIRECTION('center_axis',(0.,1.,-2.88657986402541E-15));
#337=DIRECTION('ref_axis',(1.,0.,0.));
#338=DIRECTION('',(-1.,0.,0.));
#339=DIRECTION('',(0.,-2.88657986402541E-15,-1.));
#340=DIRECTION('center_axis',(0.,1.,3.83026943495679E-15));
#341=DIRECTION('ref_axis',(-1.,0.,0.));
#342=DIRECTION('',(-1.,0.,0.));
#343=DIRECTION('',(0.,3.83026943495679E-15,-1.));
#344=DIRECTION('',(1.,0.,0.));
#345=DIRECTION('center_axis',(0.,-0.500000000000002,-0.866025403784437));
#346=DIRECTION('ref_axis',(1.,0.,0.));
#347=DIRECTION('',(-1.,0.,0.));
#348=DIRECTION('',(0.,-0.866025403784437,0.500000000000002));
#349=DIRECTION('center_axis',(1.,0.,0.));
#350=DIRECTION('ref_axis',(0.,0.,-1.));
#351=DIRECTION('center_axis',(1.,0.,0.));
#352=DIRECTION('ref_axis',(0.,1.,0.));
#353=DIRECTION('',(0.,0.86602540378444,0.499999999999998));
#354=DIRECTION('center_axis',(1.,0.,0.));
#355=DIRECTION('ref_axis',(0.,1.,0.));
#356=DIRECTION('center_axis',(1.,0.,0.));
#357=DIRECTION('ref_axis',(0.,0.,-1.));
#358=DIRECTION('center_axis',(1.,0.,0.));
#359=DIRECTION('ref_axis',(0.,1.,0.));
#360=DIRECTION('',(0.,-0.866025403784441,0.499999999999996));
#361=DIRECTION('center_axis',(1.,0.,0.));
#362=DIRECTION('ref_axis',(0.,1.,0.));
#363=DIRECTION('center_axis',(1.,0.,0.));
#364=DIRECTION('ref_axis',(0.,0.,-1.));
#365=DIRECTION('center_axis',(1.,0.,0.));
#366=DIRECTION('ref_axis',(0.,1.,0.));
#367=DIRECTION('center_axis',(1.,0.,0.));
#368=DIRECTION('ref_axis',(0.,1.,0.));
#369=DIRECTION('center_axis',(1.,0.,0.));
#370=DIRECTION('ref_axis',(0.,1.,0.));
#371=DIRECTION('center_axis',(1.,0.,0.));
#372=DIRECTION('ref_axis',(0.,1.,0.));
#373=DIRECTION('',(-1.,0.,0.));
#374=DIRECTION('center_axis',(1.,0.,0.));
#375=DIRECTION('ref_axis',(0.,1.,0.));
#376=DIRECTION('center_axis',(1.,0.,0.));
#377=DIRECTION('ref_axis',(0.,1.,0.));
#378=DIRECTION('center_axis',(1.,0.,0.));
#379=DIRECTION('ref_axis',(0.,1.,0.));
#380=DIRECTION('',(1.,0.,0.));
#381=DIRECTION('center_axis',(0.,-0.499999999999997,-0.866025403784441));
#382=DIRECTION('ref_axis',(-1.,0.,0.));
#383=DIRECTION('',(-1.,0.,0.));
#384=DIRECTION('center_axis',(0.,-0.499999999999998,0.86602540378444));
#385=DIRECTION('ref_axis',(1.,0.,0.));
#386=DIRECTION('center_axis',(1.,0.,0.));
#387=DIRECTION('ref_axis',(0.,-1.,-1.22464679914735E-16));
#388=DIRECTION('center_axis',(1.,0.,0.));
#389=DIRECTION('ref_axis',(0.,1.,0.));
#390=DIRECTION('center_axis',(1.,0.,0.));
#391=DIRECTION('ref_axis',(0.,1.,0.));
#392=DIRECTION('center_axis',(-1.,0.,0.));
#393=DIRECTION('ref_axis',(0.,0.,1.));
#394=DIRECTION('center_axis',(1.,0.,0.));
#395=DIRECTION('ref_axis',(0.,1.,0.));
#396=DIRECTION('center_axis',(1.,0.,0.));
#397=DIRECTION('ref_axis',(0.,1.,0.));
#398=DIRECTION('',(-0.707106781186547,0.707106781186548,8.65956056235494E-17));
#399=DIRECTION('center_axis',(1.,0.,0.));
#400=DIRECTION('ref_axis',(0.,1.,0.));
#401=DIRECTION('center_axis',(1.,0.,0.));
#402=DIRECTION('ref_axis',(0.,1.,0.));
#403=DIRECTION('',(-1.,0.,0.));
#404=DIRECTION('center_axis',(-1.,0.,0.));
#405=DIRECTION('ref_axis',(0.,1.,0.));
#406=DIRECTION('center_axis',(1.,0.,0.));
#407=DIRECTION('ref_axis',(0.,1.,0.));
#408=DIRECTION('',(-0.707106781186548,-0.707106781186548,-8.65956056235493E-17));
#409=DIRECTION('center_axis',(1.,0.,0.));
#410=DIRECTION('ref_axis',(0.,0.,-1.));
#411=CARTESIAN_POINT('',(0.,0.,0.));
#412=CARTESIAN_POINT('Origin',(0.393,-0.06225,-0.107820162771163));
#413=CARTESIAN_POINT('',(0.0344999999999997,-0.06225,-0.107820162771163));
#414=CARTESIAN_POINT('',(0.0399999999999998,-0.0677117498706834,-0.110973505529248));
#415=CARTESIAN_POINT('Ctrl Pts',(0.0344999999999997,-0.06225,-0.107820162771163));
#416=CARTESIAN_POINT('Ctrl Pts',(0.0371718579917432,-0.0649218579917435,
-0.109362760701932));
#417=CARTESIAN_POINT('Ctrl Pts',(0.0399999999999998,-0.0677117498706834,
-0.110973505529248));
#418=CARTESIAN_POINT('',(0.393,-0.06225,-0.107820162771163));
#419=CARTESIAN_POINT('',(0.393,-0.06225,-0.107820162771163));
#420=CARTESIAN_POINT('',(0.393,-0.0677117498706834,-0.110973505529248));
#421=CARTESIAN_POINT('',(0.393,0.0321562499999998,-0.0533146889204791));
#422=CARTESIAN_POINT('',(0.2165,-0.0677117498706833,-0.110973505529248));
#423=CARTESIAN_POINT('Origin',(0.393,-0.0622500000000001,-0.114126848287333));
#424=CARTESIAN_POINT('',(0.0399999999999998,-0.06225,-0.114126848287333));
#425=CARTESIAN_POINT('Ctrl Pts',(0.0399999999999998,-0.0622500000000001,
-0.114126848287333));
#426=CARTESIAN_POINT('Ctrl Pts',(0.037171857991751,-0.0622500000000001,
-0.110905358632711));
#427=CARTESIAN_POINT('Ctrl Pts',(0.0344999999999997,-0.06225,-0.107820162771163));
#428=CARTESIAN_POINT('',(0.393,-0.0622500000000001,-0.114126848287333));
#429=CARTESIAN_POINT('',(0.2165,-0.0622500000000001,-0.114126848287333));
#430=CARTESIAN_POINT('',(0.393,-0.0622499999999999,-0.0570634241436665));
#431=CARTESIAN_POINT('Origin',(0.393,-0.06225,0.107820162771163));
#432=CARTESIAN_POINT('',(0.0344999999999997,-0.06225,0.107820162771163));
#433=CARTESIAN_POINT('',(0.0399999999999998,-0.06225,0.114126848287333));
#434=CARTESIAN_POINT('Ctrl Pts',(0.0344999999999997,-0.06225,0.107820162771163));
#435=CARTESIAN_POINT('Ctrl Pts',(0.0371718579917685,-0.06225,0.110905358632731));
#436=CARTESIAN_POINT('Ctrl Pts',(0.0399999999999998,-0.06225,0.114126848287333));
#437=CARTESIAN_POINT('',(0.393,-0.06225,0.107820162771163));
#438=CARTESIAN_POINT('',(0.393,-0.06225,0.107820162771163));
#439=CARTESIAN_POINT('',(0.393,-0.06225,0.114126848287333));
#440=CARTESIAN_POINT('',(0.393,-0.0622499999999998,0.0539100813855809));
#441=CARTESIAN_POINT('',(0.2165,-0.06225,0.114126848287333));
#442=CARTESIAN_POINT('Origin',(0.393,-0.0677117498706833,0.110973505529248));
#443=CARTESIAN_POINT('',(0.0399999999999998,-0.0677117498706833,0.110973505529248));
#444=CARTESIAN_POINT('Ctrl Pts',(0.0399999999999998,-0.0677117498706833,
0.110973505529248));
#445=CARTESIAN_POINT('Ctrl Pts',(0.0371718579917326,-0.064921857991733,
0.109362760701926));
#446=CARTESIAN_POINT('Ctrl Pts',(0.0344999999999997,-0.06225,0.107820162771163));
#447=CARTESIAN_POINT('',(0.393,-0.0677117498706833,0.110973505529248));
#448=CARTESIAN_POINT('',(0.2165,-0.0677117498706833,0.110973505529248));
#449=CARTESIAN_POINT('',(0.393,0.0294253750646582,0.054891360299522));
#450=CARTESIAN_POINT('Origin',(0.393,0.12725,0.));
#451=CARTESIAN_POINT('',(0.393,0.1245,0.));
#452=CARTESIAN_POINT('Origin',(0.393,0.,0.));
#453=CARTESIAN_POINT('',(0.393,0.129961749870683,0.00315334275808542));
#454=CARTESIAN_POINT('',(0.393,0.128262124935342,0.00217206384414452));
#455=CARTESIAN_POINT('Origin',(0.393,0.,0.));
#456=CARTESIAN_POINT('Origin',(0.393,0.12725,0.));
#457=CARTESIAN_POINT('',(0.393,0.129961749870683,-0.00315334275808541));
#458=CARTESIAN_POINT('Origin',(0.393,0.,0.));
#459=CARTESIAN_POINT('',(0.393,0.12553125,-0.00059539246510181));
#460=CARTESIAN_POINT('Origin',(0.393,0.,0.));
#461=CARTESIAN_POINT('Origin',(0.393,0.12725,0.));
#462=CARTESIAN_POINT('',(0.393,-0.1245,-1.52468526493846E-17));
#463=CARTESIAN_POINT('Origin',(0.393,0.,0.));
#464=CARTESIAN_POINT('Origin',(0.393,0.,0.));
#465=CARTESIAN_POINT('Origin',(0.393,0.,0.));
#466=CARTESIAN_POINT('Origin',(0.2165,0.,0.));
#467=CARTESIAN_POINT('',(0.0399999999999998,0.129961749870683,0.00315334275808542));
#468=CARTESIAN_POINT('',(0.2165,0.129961749870683,0.0031533427580854));
#469=CARTESIAN_POINT('Origin',(0.0399999999999998,0.,0.));
#470=CARTESIAN_POINT('Origin',(0.2165,0.,0.));
#471=CARTESIAN_POINT('',(0.0399999999999998,0.129961749870683,-0.00315334275808541));
#472=CARTESIAN_POINT('Origin',(0.0399999999999998,0.,0.));
#473=CARTESIAN_POINT('',(0.2165,0.129961749870683,-0.00315334275808539));
#474=CARTESIAN_POINT('Origin',(0.393,0.1245,0.));
#475=CARTESIAN_POINT('',(0.0344999999999997,0.1245,0.));
#476=CARTESIAN_POINT('Ctrl Pts',(0.0344999999999997,0.1245,0.));
#477=CARTESIAN_POINT('Ctrl Pts',(0.0371718579917954,0.127171857991796,-0.00154259793080008));
#478=CARTESIAN_POINT('Ctrl Pts',(0.0399999999999998,0.129961749870683,-0.00315334275808538));
#479=CARTESIAN_POINT('',(0.393,0.1245,0.));
#480=CARTESIAN_POINT('Origin',(0.393,0.129961749870683,0.00315334275808542));
#481=CARTESIAN_POINT('Ctrl Pts',(0.0399999999999998,0.129961749870683,0.00315334275808542));
#482=CARTESIAN_POINT('Ctrl Pts',(0.0371718579917452,0.127171857991745,0.00154259793077066));
#483=CARTESIAN_POINT('Ctrl Pts',(0.0344999999999997,0.1245,0.));
#484=CARTESIAN_POINT('Origin',(0.2165,0.,0.));
#485=CARTESIAN_POINT('',(0.0399999999999998,-0.13,-1.59204083889156E-17));
#486=CARTESIAN_POINT('Origin',(0.0399999999999998,0.,0.));
#487=CARTESIAN_POINT('Origin',(0.0399999999999998,0.,0.));
#488=CARTESIAN_POINT('Origin',(0.,0.0450000000000001,0.));
#489=CARTESIAN_POINT('',(-2.73184799366426E-18,-0.0900000000000002,-1.10218211923262E-17));
#490=CARTESIAN_POINT('Origin',(0.,0.,0.));
#491=CARTESIAN_POINT('Origin',(0.0199999999999999,0.,0.));
#492=CARTESIAN_POINT('',(0.0199999999999999,-0.11,-1.34711147906209E-17));
#493=CARTESIAN_POINT('Origin',(0.9325,0.,0.));
#494=CARTESIAN_POINT('',(1.472,-0.1245,-1.52468526493846E-17));
#495=CARTESIAN_POINT('Origin',(1.472,0.,0.));
#496=CARTESIAN_POINT('',(0.9325,-0.1245,-1.52468526493846E-17));
#497=CARTESIAN_POINT('Origin',(1.492,0.,0.));
#498=CARTESIAN_POINT('',(1.512,-0.0845000000000004,-1.03482654527952E-17));
#499=CARTESIAN_POINT('Origin',(1.512,0.,0.));
#500=CARTESIAN_POINT('',(1.492,-0.1045,-1.27975590510899E-17));
#501=CARTESIAN_POINT('Origin',(1.512,0.0422500000000002,0.));
#502=UNCERTAINTY_MEASURE_WITH_UNIT(LENGTH_MEASURE(0.000393700787401575),
#508,'DISTANCE_ACCURACY_VALUE',
'Maximum model space distance between geometric entities at asserted c
onnectivities');
#503=UNCERTAINTY_MEASURE_WITH_UNIT(LENGTH_MEASURE(0.000393700787401575),
#508,'DISTANCE_ACCURACY_VALUE',
'Maximum model space distance between geometric entities at asserted c
onnectivities');
#504=(
GEOMETRIC_REPRESENTATION_CONTEXT(3)
GLOBAL_UNCERTAINTY_ASSIGNED_CONTEXT((#502))
GLOBAL_UNIT_ASSIGNED_CONTEXT((#508,#512,#513))
REPRESENTATION_CONTEXT('','3D')
);
#505=(
GEOMETRIC_REPRESENTATION_CONTEXT(3)
GLOBAL_UNCERTAINTY_ASSIGNED_CONTEXT((#503))
GLOBAL_UNIT_ASSIGNED_CONTEXT((#508,#512,#513))
REPRESENTATION_CONTEXT('','3D')
);
#506=DIMENSIONAL_EXPONENTS(1.,0.,0.,0.,0.,0.,0.);
#507=DIMENSIONAL_EXPONENTS(1.,0.,0.,0.,0.,0.,0.);
#508=(
CONVERSION_BASED_UNIT('inch',#511)
LENGTH_UNIT()
NAMED_UNIT(#506)
);
#509=(
LENGTH_UNIT()
NAMED_UNIT(*)
SI_UNIT(.MILLI.,.METRE.)
);
#510=(
LENGTH_UNIT()
NAMED_UNIT(*)
SI_UNIT(.CENTI.,.METRE.)
);
#511=LENGTH_MEASURE_WITH_UNIT(LENGTH_MEASURE(25.4),#509);
#512=(
NAMED_UNIT(*)
PLANE_ANGLE_UNIT()
SI_UNIT($,.RADIAN.)
);
#513=(
NAMED_UNIT(*)
SI_UNIT($,.STERADIAN.)
SOLID_ANGLE_UNIT()
);
#514=SHAPE_DEFINITION_REPRESENTATION(#515,#516);
#515=PRODUCT_DEFINITION_SHAPE('',$,#518);
#516=SHAPE_REPRESENTATION('',(#297),#504);
#517=PRODUCT_DEFINITION_CONTEXT('part definition',#522,'design');
#518=PRODUCT_DEFINITION('200P','200P',#519,#517);
#519=PRODUCT_DEFINITION_FORMATION('',$,#524);
#520=PRODUCT_RELATED_PRODUCT_CATEGORY('200P','200P',(#524));
#521=APPLICATION_PROTOCOL_DEFINITION('international standard',
'automotive_design',2009,#522);
#522=APPLICATION_CONTEXT(
'Core Data for Automotive Mechanical Design Process');
#523=PRODUCT_CONTEXT('part definition',#522,'mechanical');
#524=PRODUCT('200P','200P','CAM ARM PIN, FOR 1-1/2" & 2" CAM COUPLERS',
(#523));
#525=PRESENTATION_STYLE_ASSIGNMENT((#526));
#526=SURFACE_STYLE_USAGE(.BOTH.,#529);
#527=SURFACE_STYLE_RENDERING_WITH_PROPERTIES($,#533,(#528));
#528=SURFACE_STYLE_TRANSPARENT(0.);
#529=SURFACE_SIDE_STYLE('',(#530,#527));
#530=SURFACE_STYLE_FILL_AREA(#531);
#531=FILL_AREA_STYLE('',(#532));
#532=FILL_AREA_STYLE_COLOUR('',#533);
#533=COLOUR_RGB('',0.745098039215686,0.737254901960784,0.729411764705882);
ENDSEC;
END-ISO-10303-21;
