ISO-10303-21;
HEADER;
/* Generated by software containing ST-Developer
 * from STEP Tools, Inc. (www.steptools.com) 
 */

FILE_DESCRIPTION(
/* description */ ('ANSI FLANGE GASKET'),
/* implementation_level */ '2;1');

FILE_NAME(
/* name */ 'E:\\1-3D\\STEP\\AF150G.stp',
/* time_stamp */ '2016-12-06T15:01:31-05:00',
/* author */ ('MJC'),
/* organization */ (''),
/* preprocessor_version */ 'ST-DEVELOPER v16.5',
/* originating_system */ 'Autodesk Inventor 2017',
/* authorisation */ '');

FILE_SCHEMA (('AUTOMOTIVE_DESIGN { 1 0 10303 214 3 1 1 }'));
ENDSEC;

DATA;
#10=MECHANICAL_DESIGN_GEOMETRIC_PRESENTATION_REPRESENTATION('',(#13),#245);
#11=SHAPE_REPRESENTATION_RELATIONSHIP('SRR','None',#257,#12);
#12=ADVANCED_BREP_SHAPE_REPRESENTATION('',(#14),#244);
#13=STYLED_ITEM('',(#266),#14);
#14=MANIFOLD_SOLID_BREP('Solid1',#139);
#15=PLANE('',#165);
#16=PLANE('',#166);
#17=FACE_BOUND('',#42,.T.);
#18=FACE_BOUND('',#44,.T.);
#19=FACE_BOUND('',#46,.T.);
#20=FACE_BOUND('',#48,.T.);
#21=FACE_BOUND('',#50,.T.);
#22=FACE_BOUND('',#52,.T.);
#23=FACE_BOUND('',#54,.T.);
#24=FACE_BOUND('',#55,.T.);
#25=FACE_BOUND('',#56,.T.);
#26=FACE_BOUND('',#57,.T.);
#27=FACE_BOUND('',#58,.T.);
#28=FACE_BOUND('',#60,.T.);
#29=FACE_BOUND('',#61,.T.);
#30=FACE_BOUND('',#62,.T.);
#31=FACE_BOUND('',#63,.T.);
#32=FACE_BOUND('',#64,.T.);
#33=FACE_OUTER_BOUND('',#41,.T.);
#34=FACE_OUTER_BOUND('',#43,.T.);
#35=FACE_OUTER_BOUND('',#45,.T.);
#36=FACE_OUTER_BOUND('',#47,.T.);
#37=FACE_OUTER_BOUND('',#49,.T.);
#38=FACE_OUTER_BOUND('',#51,.T.);
#39=FACE_OUTER_BOUND('',#53,.T.);
#40=FACE_OUTER_BOUND('',#59,.T.);
#41=EDGE_LOOP('',(#101));
#42=EDGE_LOOP('',(#102));
#43=EDGE_LOOP('',(#103));
#44=EDGE_LOOP('',(#104));
#45=EDGE_LOOP('',(#105));
#46=EDGE_LOOP('',(#106));
#47=EDGE_LOOP('',(#107));
#48=EDGE_LOOP('',(#108));
#49=EDGE_LOOP('',(#109));
#50=EDGE_LOOP('',(#110));
#51=EDGE_LOOP('',(#111));
#52=EDGE_LOOP('',(#112));
#53=EDGE_LOOP('',(#113));
#54=EDGE_LOOP('',(#114));
#55=EDGE_LOOP('',(#115));
#56=EDGE_LOOP('',(#116));
#57=EDGE_LOOP('',(#117));
#58=EDGE_LOOP('',(#118));
#59=EDGE_LOOP('',(#119));
#60=EDGE_LOOP('',(#120));
#61=EDGE_LOOP('',(#121));
#62=EDGE_LOOP('',(#122));
#63=EDGE_LOOP('',(#123));
#64=EDGE_LOOP('',(#124));
#65=CIRCLE('',#148,0.96875);
#66=CIRCLE('',#149,0.96875);
#67=CIRCLE('',#151,0.3125);
#68=CIRCLE('',#152,0.3125);
#69=CIRCLE('',#154,0.3125);
#70=CIRCLE('',#155,0.3125);
#71=CIRCLE('',#157,0.3125);
#72=CIRCLE('',#158,0.3125);
#73=CIRCLE('',#160,0.3125);
#74=CIRCLE('',#161,0.3125);
#75=CIRCLE('',#163,2.5);
#76=CIRCLE('',#164,2.5);
#77=VERTEX_POINT('',#211);
#78=VERTEX_POINT('',#213);
#79=VERTEX_POINT('',#216);
#80=VERTEX_POINT('',#218);
#81=VERTEX_POINT('',#221);
#82=VERTEX_POINT('',#223);
#83=VERTEX_POINT('',#226);
#84=VERTEX_POINT('',#228);
#85=VERTEX_POINT('',#231);
#86=VERTEX_POINT('',#233);
#87=VERTEX_POINT('',#236);
#88=VERTEX_POINT('',#238);
#89=EDGE_CURVE('',#77,#77,#65,.T.);
#90=EDGE_CURVE('',#78,#78,#66,.T.);
#91=EDGE_CURVE('',#79,#79,#67,.T.);
#92=EDGE_CURVE('',#80,#80,#68,.T.);
#93=EDGE_CURVE('',#81,#81,#69,.T.);
#94=EDGE_CURVE('',#82,#82,#70,.T.);
#95=EDGE_CURVE('',#83,#83,#71,.T.);
#96=EDGE_CURVE('',#84,#84,#72,.T.);
#97=EDGE_CURVE('',#85,#85,#73,.T.);
#98=EDGE_CURVE('',#86,#86,#74,.T.);
#99=EDGE_CURVE('',#87,#87,#75,.T.);
#100=EDGE_CURVE('',#88,#88,#76,.T.);
#101=ORIENTED_EDGE('',*,*,#89,.F.);
#102=ORIENTED_EDGE('',*,*,#90,.F.);
#103=ORIENTED_EDGE('',*,*,#91,.F.);
#104=ORIENTED_EDGE('',*,*,#92,.F.);
#105=ORIENTED_EDGE('',*,*,#93,.F.);
#106=ORIENTED_EDGE('',*,*,#94,.F.);
#107=ORIENTED_EDGE('',*,*,#95,.F.);
#108=ORIENTED_EDGE('',*,*,#96,.F.);
#109=ORIENTED_EDGE('',*,*,#97,.F.);
#110=ORIENTED_EDGE('',*,*,#98,.F.);
#111=ORIENTED_EDGE('',*,*,#99,.T.);
#112=ORIENTED_EDGE('',*,*,#100,.F.);
#113=ORIENTED_EDGE('',*,*,#99,.F.);
#114=ORIENTED_EDGE('',*,*,#89,.T.);
#115=ORIENTED_EDGE('',*,*,#91,.T.);
#116=ORIENTED_EDGE('',*,*,#93,.T.);
#117=ORIENTED_EDGE('',*,*,#95,.T.);
#118=ORIENTED_EDGE('',*,*,#97,.T.);
#119=ORIENTED_EDGE('',*,*,#100,.T.);
#120=ORIENTED_EDGE('',*,*,#90,.T.);
#121=ORIENTED_EDGE('',*,*,#92,.T.);
#122=ORIENTED_EDGE('',*,*,#94,.T.);
#123=ORIENTED_EDGE('',*,*,#96,.T.);
#124=ORIENTED_EDGE('',*,*,#98,.T.);
#125=CYLINDRICAL_SURFACE('',#147,0.96875);
#126=CYLINDRICAL_SURFACE('',#150,0.3125);
#127=CYLINDRICAL_SURFACE('',#153,0.3125);
#128=CYLINDRICAL_SURFACE('',#156,0.3125);
#129=CYLINDRICAL_SURFACE('',#159,0.3125);
#130=CYLINDRICAL_SURFACE('',#162,2.5);
#131=ADVANCED_FACE('',(#33,#17),#125,.F.);
#132=ADVANCED_FACE('',(#34,#18),#126,.F.);
#133=ADVANCED_FACE('',(#35,#19),#127,.F.);
#134=ADVANCED_FACE('',(#36,#20),#128,.F.);
#135=ADVANCED_FACE('',(#37,#21),#129,.F.);
#136=ADVANCED_FACE('',(#38,#22),#130,.T.);
#137=ADVANCED_FACE('',(#39,#23,#24,#25,#26,#27),#15,.F.);
#138=ADVANCED_FACE('',(#40,#28,#29,#30,#31,#32),#16,.T.);
#139=CLOSED_SHELL('',(#131,#132,#133,#134,#135,#136,#137,#138));
#140=DATE_TIME_ROLE('creation_date');
#141=APPLIED_DATE_AND_TIME_ASSIGNMENT(#142,#140,(#259));
#142=DATE_AND_TIME(#143,#144);
#143=CALENDAR_DATE(2012,5,10);
#144=LOCAL_TIME(12,49,44.,#145);
#145=COORDINATED_UNIVERSAL_TIME_OFFSET(0,0,.BEHIND.);
#146=AXIS2_PLACEMENT_3D('placement',#209,#167,#168);
#147=AXIS2_PLACEMENT_3D('',#210,#169,#170);
#148=AXIS2_PLACEMENT_3D('',#212,#171,#172);
#149=AXIS2_PLACEMENT_3D('',#214,#173,#174);
#150=AXIS2_PLACEMENT_3D('',#215,#175,#176);
#151=AXIS2_PLACEMENT_3D('',#217,#177,#178);
#152=AXIS2_PLACEMENT_3D('',#219,#179,#180);
#153=AXIS2_PLACEMENT_3D('',#220,#181,#182);
#154=AXIS2_PLACEMENT_3D('',#222,#183,#184);
#155=AXIS2_PLACEMENT_3D('',#224,#185,#186);
#156=AXIS2_PLACEMENT_3D('',#225,#187,#188);
#157=AXIS2_PLACEMENT_3D('',#227,#189,#190);
#158=AXIS2_PLACEMENT_3D('',#229,#191,#192);
#159=AXIS2_PLACEMENT_3D('',#230,#193,#194);
#160=AXIS2_PLACEMENT_3D('',#232,#195,#196);
#161=AXIS2_PLACEMENT_3D('',#234,#197,#198);
#162=AXIS2_PLACEMENT_3D('',#235,#199,#200);
#163=AXIS2_PLACEMENT_3D('',#237,#201,#202);
#164=AXIS2_PLACEMENT_3D('',#239,#203,#204);
#165=AXIS2_PLACEMENT_3D('',#240,#205,#206);
#166=AXIS2_PLACEMENT_3D('',#241,#207,#208);
#167=DIRECTION('axis',(0.,0.,1.));
#168=DIRECTION('refdir',(1.,0.,0.));
#169=DIRECTION('center_axis',(0.,0.,1.));
#170=DIRECTION('ref_axis',(-1.,0.,0.));
#171=DIRECTION('center_axis',(0.,0.,-1.));
#172=DIRECTION('ref_axis',(-1.,0.,0.));
#173=DIRECTION('center_axis',(0.,0.,1.));
#174=DIRECTION('ref_axis',(-1.,0.,0.));
#175=DIRECTION('center_axis',(0.,0.,1.));
#176=DIRECTION('ref_axis',(-1.,0.,0.));
#177=DIRECTION('center_axis',(0.,0.,-1.));
#178=DIRECTION('ref_axis',(-1.,0.,0.));
#179=DIRECTION('center_axis',(0.,0.,1.));
#180=DIRECTION('ref_axis',(-1.,0.,0.));
#181=DIRECTION('center_axis',(0.,0.,1.));
#182=DIRECTION('ref_axis',(-1.,0.,0.));
#183=DIRECTION('center_axis',(0.,0.,-1.));
#184=DIRECTION('ref_axis',(-1.,0.,0.));
#185=DIRECTION('center_axis',(0.,0.,1.));
#186=DIRECTION('ref_axis',(-1.,0.,0.));
#187=DIRECTION('center_axis',(0.,0.,1.));
#188=DIRECTION('ref_axis',(-1.,0.,0.));
#189=DIRECTION('center_axis',(0.,0.,-1.));
#190=DIRECTION('ref_axis',(-1.,0.,0.));
#191=DIRECTION('center_axis',(0.,0.,1.));
#192=DIRECTION('ref_axis',(-1.,0.,0.));
#193=DIRECTION('center_axis',(0.,0.,1.));
#194=DIRECTION('ref_axis',(-1.,0.,0.));
#195=DIRECTION('center_axis',(0.,0.,-1.));
#196=DIRECTION('ref_axis',(-1.,0.,0.));
#197=DIRECTION('center_axis',(0.,0.,1.));
#198=DIRECTION('ref_axis',(-1.,0.,0.));
#199=DIRECTION('center_axis',(0.,0.,1.));
#200=DIRECTION('ref_axis',(-1.,0.,0.));
#201=DIRECTION('center_axis',(0.,0.,-1.));
#202=DIRECTION('ref_axis',(-1.,0.,0.));
#203=DIRECTION('center_axis',(0.,0.,-1.));
#204=DIRECTION('ref_axis',(-1.,0.,0.));
#205=DIRECTION('center_axis',(0.,0.,-1.));
#206=DIRECTION('ref_axis',(-1.,0.,0.));
#207=DIRECTION('center_axis',(0.,0.,-1.));
#208=DIRECTION('ref_axis',(-1.,0.,0.));
#209=CARTESIAN_POINT('',(0.,0.,0.));
#210=CARTESIAN_POINT('Origin',(0.,0.,0.));
#211=CARTESIAN_POINT('',(0.96875,1.186376586674E-16,0.118));
#212=CARTESIAN_POINT('Origin',(0.,0.,0.118));
#213=CARTESIAN_POINT('',(0.96875,1.186376586674E-16,0.));
#214=CARTESIAN_POINT('Origin',(0.,0.,0.));
#215=CARTESIAN_POINT('Origin',(1.9375,0.,0.));
#216=CARTESIAN_POINT('',(2.25,3.82702124733548E-17,0.118));
#217=CARTESIAN_POINT('Origin',(1.9375,0.,0.118));
#218=CARTESIAN_POINT('',(2.25,3.82702124733548E-17,0.));
#219=CARTESIAN_POINT('Origin',(1.9375,0.,0.));
#220=CARTESIAN_POINT('Origin',(0.,-1.9375,0.));
#221=CARTESIAN_POINT('',(0.3125,-1.9375,0.118));
#222=CARTESIAN_POINT('Origin',(0.,-1.9375,0.118));
#223=CARTESIAN_POINT('',(0.3125,-1.9375,0.));
#224=CARTESIAN_POINT('Origin',(0.,-1.9375,0.));
#225=CARTESIAN_POINT('Origin',(-1.9375,0.,0.));
#226=CARTESIAN_POINT('',(-1.625,3.82702124733548E-17,0.118));
#227=CARTESIAN_POINT('Origin',(-1.9375,0.,0.118));
#228=CARTESIAN_POINT('',(-1.625,3.82702124733548E-17,0.));
#229=CARTESIAN_POINT('Origin',(-1.9375,0.,0.));
#230=CARTESIAN_POINT('Origin',(0.,1.9375,0.));
#231=CARTESIAN_POINT('',(0.3125,1.9375,0.118));
#232=CARTESIAN_POINT('Origin',(0.,1.9375,0.118));
#233=CARTESIAN_POINT('',(0.3125,1.9375,0.));
#234=CARTESIAN_POINT('Origin',(0.,1.9375,0.));
#235=CARTESIAN_POINT('Origin',(0.,0.,0.));
#236=CARTESIAN_POINT('',(2.5,3.06161699786838E-16,0.118));
#237=CARTESIAN_POINT('Origin',(0.,0.,0.118));
#238=CARTESIAN_POINT('',(2.5,3.06161699786838E-16,0.));
#239=CARTESIAN_POINT('Origin',(0.,0.,0.));
#240=CARTESIAN_POINT('Origin',(0.,0.,0.118));
#241=CARTESIAN_POINT('Origin',(0.,0.,0.));
#242=UNCERTAINTY_MEASURE_WITH_UNIT(LENGTH_MEASURE(0.000393700787401575),
#246,'DISTANCE_ACCURACY_VALUE',
'Maximum model space distance between geometric entities at asserted c
onnectivities');
#243=UNCERTAINTY_MEASURE_WITH_UNIT(LENGTH_MEASURE(1.E-6),#247,
'DISTANCE_ACCURACY_VALUE',
'Maximum model space distance between geometric entities at asserted c
onnectivities');
#244=(
GEOMETRIC_REPRESENTATION_CONTEXT(3)
GLOBAL_UNCERTAINTY_ASSIGNED_CONTEXT((#242))
GLOBAL_UNIT_ASSIGNED_CONTEXT((#246,#252,#249))
REPRESENTATION_CONTEXT('','3D')
);
#245=(
GEOMETRIC_REPRESENTATION_CONTEXT(3)
GLOBAL_UNCERTAINTY_ASSIGNED_CONTEXT((#243))
GLOBAL_UNIT_ASSIGNED_CONTEXT((#247,#252,#249))
REPRESENTATION_CONTEXT('','3D')
);
#246=(
CONVERSION_BASED_UNIT('__CONSTANT UNIT inch',#248)
LENGTH_UNIT()
NAMED_UNIT(#251)
);
#247=(
LENGTH_UNIT()
NAMED_UNIT(*)
SI_UNIT(.MILLI.,.METRE.)
);
#248=LENGTH_MEASURE_WITH_UNIT(LENGTH_MEASURE(25.4),#247);
#249=(
NAMED_UNIT(*)
SI_UNIT($,.STERADIAN.)
SOLID_ANGLE_UNIT()
);
#250=DIMENSIONAL_EXPONENTS(0.,0.,0.,0.,0.,0.,0.);
#251=DIMENSIONAL_EXPONENTS(1.,0.,0.,0.,0.,0.,0.);
#252=(
CONVERSION_BASED_UNIT('degree',#254)
NAMED_UNIT(#250)
PLANE_ANGLE_UNIT()
);
#253=(
NAMED_UNIT(*)
PLANE_ANGLE_UNIT()
SI_UNIT($,.RADIAN.)
);
#254=PLANE_ANGLE_MEASURE_WITH_UNIT(PLANE_ANGLE_MEASURE(0.01745329252),#253);
#255=SHAPE_DEFINITION_REPRESENTATION(#256,#257);
#256=PRODUCT_DEFINITION_SHAPE('',$,#259);
#257=SHAPE_REPRESENTATION('',(#146),#244);
#258=PRODUCT_DEFINITION_CONTEXT('part definition',#263,'design');
#259=PRODUCT_DEFINITION('AF150G','AF150G',#260,#258);
#260=PRODUCT_DEFINITION_FORMATION('',$,#265);
#261=PRODUCT_RELATED_PRODUCT_CATEGORY('AF150G','AF150G',(#265));
#262=APPLICATION_PROTOCOL_DEFINITION('international standard',
'automotive_design',2009,#263);
#263=APPLICATION_CONTEXT(
'Core Data for Automotive Mechanical Design Process');
#264=PRODUCT_CONTEXT('part definition',#263,'mechanical');
#265=PRODUCT('AF150G','AF150G','ANSI FLANGE GASKET',(#264));
#266=PRESENTATION_STYLE_ASSIGNMENT((#267));
#267=SURFACE_STYLE_USAGE(.BOTH.,#268);
#268=SURFACE_SIDE_STYLE('',(#269));
#269=SURFACE_STYLE_FILL_AREA(#270);
#270=FILL_AREA_STYLE('',(#271));
#271=FILL_AREA_STYLE_COLOUR('',#272);
#272=COLOUR_RGB('',0.309803921568627,0.309803921568627,0.309803921568627);
ENDSEC;
END-ISO-10303-21;
