ISO-10303-21;
HEADER;
/* Generated by software containing ST-Developer
 * from STEP Tools, Inc. (www.steptools.com) 
 */

FILE_DESCRIPTION(
/* description */ ('ANSI FLANGE GASKET'),
/* implementation_level */ '2;1');

FILE_NAME(
/* name */ 'G:\\engineer\\1-3D\\STEP\\AF200G.stp',
/* time_stamp */ '2013-11-20T09:16:36-05:00',
/* author */ ('mclevenger'),
/* organization */ (''),
/* preprocessor_version */ 'ST-DEVELOPER v15.2',
/* originating_system */ 'Autodesk Inventor 2014',
/* authorisation */ '');

FILE_SCHEMA (('AUTOMOTIVE_DESIGN { 1 0 10303 214 3 1 1 }'));
ENDSEC;

DATA;
#10=SHAPE_REPRESENTATION_RELATIONSHIP('SRR','None',#248,#11);
#11=ADVANCED_BREP_SHAPE_REPRESENTATION($,(#138),#236);
#12=STYLED_ITEM($,(#256),#138);
#13=PLANE($,#158);
#14=PLANE($,#159);
#15=FACE_BOUND($,#40,.T.);
#16=FACE_BOUND($,#42,.T.);
#17=FACE_BOUND($,#44,.T.);
#18=FACE_BOUND($,#46,.T.);
#19=FACE_BOUND($,#48,.T.);
#20=FACE_BOUND($,#50,.T.);
#21=FACE_BOUND($,#51,.T.);
#22=FACE_BOUND($,#52,.T.);
#23=FACE_BOUND($,#53,.T.);
#24=FACE_BOUND($,#54,.T.);
#25=FACE_BOUND($,#55,.T.);
#26=FACE_BOUND($,#56,.T.);
#27=FACE_BOUND($,#57,.T.);
#28=FACE_BOUND($,#58,.T.);
#29=FACE_BOUND($,#59,.T.);
#30=FACE_BOUND($,#60,.T.);
#31=FACE_BOUND($,#61,.T.);
#32=FACE_BOUND($,#62,.T.);
#33=FACE_OUTER_BOUND($,#39,.T.);
#34=FACE_OUTER_BOUND($,#41,.T.);
#35=FACE_OUTER_BOUND($,#43,.T.);
#36=FACE_OUTER_BOUND($,#45,.T.);
#37=FACE_OUTER_BOUND($,#47,.T.);
#38=FACE_OUTER_BOUND($,#49,.T.);
#39=EDGE_LOOP($,(#99));
#40=EDGE_LOOP($,(#100));
#41=EDGE_LOOP($,(#101));
#42=EDGE_LOOP($,(#102));
#43=EDGE_LOOP($,(#103));
#44=EDGE_LOOP($,(#104));
#45=EDGE_LOOP($,(#105));
#46=EDGE_LOOP($,(#106));
#47=EDGE_LOOP($,(#107));
#48=EDGE_LOOP($,(#108));
#49=EDGE_LOOP($,(#109));
#50=EDGE_LOOP($,(#110));
#51=EDGE_LOOP($,(#111));
#52=EDGE_LOOP($,(#112));
#53=EDGE_LOOP($,(#113));
#54=EDGE_LOOP($,(#114));
#55=EDGE_LOOP($,(#115));
#56=EDGE_LOOP($,(#116));
#57=EDGE_LOOP($,(#117));
#58=EDGE_LOOP($,(#118));
#59=EDGE_LOOP($,(#119));
#60=EDGE_LOOP($,(#120));
#61=EDGE_LOOP($,(#121));
#62=EDGE_LOOP($,(#122));
#63=CIRCLE($,#141,1.1875);
#64=CIRCLE($,#142,1.1875);
#65=CIRCLE($,#144,0.375);
#66=CIRCLE($,#145,0.375);
#67=CIRCLE($,#147,0.375);
#68=CIRCLE($,#148,0.375);
#69=CIRCLE($,#150,0.375);
#70=CIRCLE($,#151,0.375);
#71=CIRCLE($,#153,0.375);
#72=CIRCLE($,#154,0.375);
#73=CIRCLE($,#156,3.);
#74=CIRCLE($,#157,3.);
#75=VERTEX_POINT($,#204);
#76=VERTEX_POINT($,#206);
#77=VERTEX_POINT($,#209);
#78=VERTEX_POINT($,#211);
#79=VERTEX_POINT($,#214);
#80=VERTEX_POINT($,#216);
#81=VERTEX_POINT($,#219);
#82=VERTEX_POINT($,#221);
#83=VERTEX_POINT($,#224);
#84=VERTEX_POINT($,#226);
#85=VERTEX_POINT($,#229);
#86=VERTEX_POINT($,#231);
#87=EDGE_CURVE($,#75,#75,#63,.T.);
#88=EDGE_CURVE($,#76,#76,#64,.T.);
#89=EDGE_CURVE($,#77,#77,#65,.T.);
#90=EDGE_CURVE($,#78,#78,#66,.T.);
#91=EDGE_CURVE($,#79,#79,#67,.T.);
#92=EDGE_CURVE($,#80,#80,#68,.T.);
#93=EDGE_CURVE($,#81,#81,#69,.T.);
#94=EDGE_CURVE($,#82,#82,#70,.T.);
#95=EDGE_CURVE($,#83,#83,#71,.T.);
#96=EDGE_CURVE($,#84,#84,#72,.T.);
#97=EDGE_CURVE($,#85,#85,#73,.T.);
#98=EDGE_CURVE($,#86,#86,#74,.T.);
#99=ORIENTED_EDGE($,*,*,#87,.F.);
#100=ORIENTED_EDGE($,*,*,#88,.F.);
#101=ORIENTED_EDGE($,*,*,#89,.F.);
#102=ORIENTED_EDGE($,*,*,#90,.F.);
#103=ORIENTED_EDGE($,*,*,#91,.F.);
#104=ORIENTED_EDGE($,*,*,#92,.F.);
#105=ORIENTED_EDGE($,*,*,#93,.F.);
#106=ORIENTED_EDGE($,*,*,#94,.F.);
#107=ORIENTED_EDGE($,*,*,#95,.F.);
#108=ORIENTED_EDGE($,*,*,#96,.F.);
#109=ORIENTED_EDGE($,*,*,#97,.T.);
#110=ORIENTED_EDGE($,*,*,#98,.F.);
#111=ORIENTED_EDGE($,*,*,#87,.T.);
#112=ORIENTED_EDGE($,*,*,#89,.T.);
#113=ORIENTED_EDGE($,*,*,#91,.T.);
#114=ORIENTED_EDGE($,*,*,#93,.T.);
#115=ORIENTED_EDGE($,*,*,#95,.T.);
#116=ORIENTED_EDGE($,*,*,#97,.F.);
#117=ORIENTED_EDGE($,*,*,#88,.T.);
#118=ORIENTED_EDGE($,*,*,#90,.T.);
#119=ORIENTED_EDGE($,*,*,#92,.T.);
#120=ORIENTED_EDGE($,*,*,#94,.T.);
#121=ORIENTED_EDGE($,*,*,#96,.T.);
#122=ORIENTED_EDGE($,*,*,#98,.T.);
#123=CYLINDRICAL_SURFACE($,#140,1.1875);
#124=CYLINDRICAL_SURFACE($,#143,0.375);
#125=CYLINDRICAL_SURFACE($,#146,0.375);
#126=CYLINDRICAL_SURFACE($,#149,0.375);
#127=CYLINDRICAL_SURFACE($,#152,0.375);
#128=CYLINDRICAL_SURFACE($,#155,3.);
#129=ADVANCED_FACE($,(#33,#15),#123,.F.);
#130=ADVANCED_FACE($,(#34,#16),#124,.F.);
#131=ADVANCED_FACE($,(#35,#17),#125,.F.);
#132=ADVANCED_FACE($,(#36,#18),#126,.F.);
#133=ADVANCED_FACE($,(#37,#19),#127,.F.);
#134=ADVANCED_FACE($,(#38,#20),#128,.T.);
#135=ADVANCED_FACE($,(#21,#22,#23,#24,#25,#26),#13,.F.);
#136=ADVANCED_FACE($,(#27,#28,#29,#30,#31,#32),#14,.T.);
#137=CLOSED_SHELL($,(#129,#130,#131,#132,#133,#134,#135,#136));
#138=MANIFOLD_SOLID_BREP('Solid1',#137);
#139=AXIS2_PLACEMENT_3D('placement',#202,#160,#161);
#140=AXIS2_PLACEMENT_3D($,#203,#162,#163);
#141=AXIS2_PLACEMENT_3D($,#205,#164,#165);
#142=AXIS2_PLACEMENT_3D($,#207,#166,#167);
#143=AXIS2_PLACEMENT_3D($,#208,#168,#169);
#144=AXIS2_PLACEMENT_3D($,#210,#170,#171);
#145=AXIS2_PLACEMENT_3D($,#212,#172,#173);
#146=AXIS2_PLACEMENT_3D($,#213,#174,#175);
#147=AXIS2_PLACEMENT_3D($,#215,#176,#177);
#148=AXIS2_PLACEMENT_3D($,#217,#178,#179);
#149=AXIS2_PLACEMENT_3D($,#218,#180,#181);
#150=AXIS2_PLACEMENT_3D($,#220,#182,#183);
#151=AXIS2_PLACEMENT_3D($,#222,#184,#185);
#152=AXIS2_PLACEMENT_3D($,#223,#186,#187);
#153=AXIS2_PLACEMENT_3D($,#225,#188,#189);
#154=AXIS2_PLACEMENT_3D($,#227,#190,#191);
#155=AXIS2_PLACEMENT_3D($,#228,#192,#193);
#156=AXIS2_PLACEMENT_3D($,#230,#194,#195);
#157=AXIS2_PLACEMENT_3D($,#232,#196,#197);
#158=AXIS2_PLACEMENT_3D($,#233,#198,#199);
#159=AXIS2_PLACEMENT_3D($,#234,#200,#201);
#160=DIRECTION('axis',(0.,0.,1.));
#161=DIRECTION('refdir',(1.,0.,0.));
#162=DIRECTION('center_axis',(0.,0.,1.));
#163=DIRECTION('ref_axis',(-1.,0.,0.));
#164=DIRECTION('center_axis',(0.,0.,-1.));
#165=DIRECTION('ref_axis',(-1.,0.,0.));
#166=DIRECTION('center_axis',(0.,0.,1.));
#167=DIRECTION('ref_axis',(-1.,0.,0.));
#168=DIRECTION('center_axis',(0.,0.,1.));
#169=DIRECTION('ref_axis',(-1.,0.,0.));
#170=DIRECTION('center_axis',(0.,0.,-1.));
#171=DIRECTION('ref_axis',(-1.,0.,0.));
#172=DIRECTION('center_axis',(0.,0.,1.));
#173=DIRECTION('ref_axis',(-1.,0.,0.));
#174=DIRECTION('center_axis',(0.,0.,1.));
#175=DIRECTION('ref_axis',(-1.,0.,0.));
#176=DIRECTION('center_axis',(0.,0.,-1.));
#177=DIRECTION('ref_axis',(-1.,0.,0.));
#178=DIRECTION('center_axis',(0.,0.,1.));
#179=DIRECTION('ref_axis',(-1.,0.,0.));
#180=DIRECTION('center_axis',(0.,0.,1.));
#181=DIRECTION('ref_axis',(-1.,0.,0.));
#182=DIRECTION('center_axis',(0.,0.,-1.));
#183=DIRECTION('ref_axis',(-1.,0.,0.));
#184=DIRECTION('center_axis',(0.,0.,1.));
#185=DIRECTION('ref_axis',(-1.,0.,0.));
#186=DIRECTION('center_axis',(0.,0.,1.));
#187=DIRECTION('ref_axis',(-1.,0.,0.));
#188=DIRECTION('center_axis',(0.,0.,-1.));
#189=DIRECTION('ref_axis',(-1.,0.,0.));
#190=DIRECTION('center_axis',(0.,0.,1.));
#191=DIRECTION('ref_axis',(-1.,0.,0.));
#192=DIRECTION('center_axis',(0.,0.,1.));
#193=DIRECTION('ref_axis',(-1.,0.,0.));
#194=DIRECTION('center_axis',(0.,0.,-1.));
#195=DIRECTION('ref_axis',(-1.,0.,0.));
#196=DIRECTION('center_axis',(0.,0.,-1.));
#197=DIRECTION('ref_axis',(-1.,0.,0.));
#198=DIRECTION('center_axis',(0.,0.,-1.));
#199=DIRECTION('ref_axis',(-1.,0.,0.));
#200=DIRECTION('center_axis',(0.,0.,-1.));
#201=DIRECTION('ref_axis',(-1.,0.,0.));
#202=CARTESIAN_POINT('',(0.,0.,0.));
#203=CARTESIAN_POINT('Origin',(0.,0.,0.));
#204=CARTESIAN_POINT('',(1.1875,1.45426807398748E-016,0.118));
#205=CARTESIAN_POINT('Origin',(0.,0.,0.118));
#206=CARTESIAN_POINT('',(1.1875,1.45426807398748E-016,0.));
#207=CARTESIAN_POINT('Origin',(0.,0.,0.));
#208=CARTESIAN_POINT('Origin',(2.375,0.,0.));
#209=CARTESIAN_POINT('',(2.75,4.59242549680257E-017,0.118));
#210=CARTESIAN_POINT('Origin',(2.375,0.,0.118));
#211=CARTESIAN_POINT('',(2.75,4.59242549680257E-017,0.));
#212=CARTESIAN_POINT('Origin',(2.375,0.,0.));
#213=CARTESIAN_POINT('Origin',(0.,-2.375,0.));
#214=CARTESIAN_POINT('',(0.375,-2.375,0.118));
#215=CARTESIAN_POINT('Origin',(0.,-2.375,0.118));
#216=CARTESIAN_POINT('',(0.375,-2.375,0.));
#217=CARTESIAN_POINT('Origin',(0.,-2.375,0.));
#218=CARTESIAN_POINT('Origin',(-2.375,0.,0.));
#219=CARTESIAN_POINT('',(-2.,4.59242549680257E-017,0.118));
#220=CARTESIAN_POINT('Origin',(-2.375,0.,0.118));
#221=CARTESIAN_POINT('',(-2.,4.59242549680257E-017,0.));
#222=CARTESIAN_POINT('Origin',(-2.375,0.,0.));
#223=CARTESIAN_POINT('Origin',(0.,2.375,0.));
#224=CARTESIAN_POINT('',(0.375,2.375,0.118));
#225=CARTESIAN_POINT('Origin',(0.,2.375,0.118));
#226=CARTESIAN_POINT('',(0.375,2.375,0.));
#227=CARTESIAN_POINT('Origin',(0.,2.375,0.));
#228=CARTESIAN_POINT('Origin',(0.,0.,0.));
#229=CARTESIAN_POINT('',(3.,3.67394039744206E-016,0.118));
#230=CARTESIAN_POINT('Origin',(0.,0.,0.118));
#231=CARTESIAN_POINT('',(3.,3.67394039744206E-016,0.));
#232=CARTESIAN_POINT('Origin',(0.,0.,0.));
#233=CARTESIAN_POINT('Origin',(0.,0.,0.118));
#234=CARTESIAN_POINT('Origin',(0.,0.,0.));
#235=UNCERTAINTY_MEASURE_WITH_UNIT(LENGTH_MEASURE(0.000393700787401575),
#237,'DISTANCE_ACCURACY_VALUE',
'Maximum model space distance between geometric entities at asserted c
onnectivities');
#236=(
GEOMETRIC_REPRESENTATION_CONTEXT(3)
GLOBAL_UNCERTAINTY_ASSIGNED_CONTEXT((#235))
GLOBAL_UNIT_ASSIGNED_CONTEXT((#237,#243,#240))
REPRESENTATION_CONTEXT('','3D')
);
#237=(
CONVERSION_BASED_UNIT('__CONSTANT UNIT inch',#239)
LENGTH_UNIT()
NAMED_UNIT(#242)
);
#238=(
LENGTH_UNIT()
NAMED_UNIT(*)
SI_UNIT(.MILLI.,.METRE.)
);
#239=LENGTH_MEASURE_WITH_UNIT(LENGTH_MEASURE(25.4),#238);
#240=(
NAMED_UNIT(*)
SI_UNIT($,.STERADIAN.)
SOLID_ANGLE_UNIT()
);
#241=DIMENSIONAL_EXPONENTS(0.,0.,0.,0.,0.,0.,0.);
#242=DIMENSIONAL_EXPONENTS(1.,0.,0.,0.,0.,0.,0.);
#243=(
CONVERSION_BASED_UNIT('degree',#245)
NAMED_UNIT(#241)
PLANE_ANGLE_UNIT()
);
#244=(
NAMED_UNIT(*)
PLANE_ANGLE_UNIT()
SI_UNIT($,.RADIAN.)
);
#245=PLANE_ANGLE_MEASURE_WITH_UNIT(PLANE_ANGLE_MEASURE(0.01745329252),#244);
#246=SHAPE_DEFINITION_REPRESENTATION(#247,#248);
#247=PRODUCT_DEFINITION_SHAPE('',$,#250);
#248=SHAPE_REPRESENTATION('',(#139),#236);
#249=PRODUCT_DEFINITION_CONTEXT('3D Mechanical Parts',#253,'design');
#250=PRODUCT_DEFINITION('AF200G','AF200G',#251,#249);
#251=PRODUCT_DEFINITION_FORMATION('',$,#255);
#252=APPLICATION_PROTOCOL_DEFINITION('international standard',
'automotive_design',2009,#253);
#253=APPLICATION_CONTEXT(
'Core Data for Automotive Mechanical Design Process');
#254=PRODUCT_CONTEXT('3D Mechanical Parts',#253,'mechanical');
#255=PRODUCT('AF200G','AF200G',$,(#254));
#256=PRESENTATION_STYLE_ASSIGNMENT((#257));
#257=SURFACE_STYLE_USAGE(.BOTH.,#258);
#258=SURFACE_SIDE_STYLE($,(#259));
#259=SURFACE_STYLE_FILL_AREA(#260);
#260=FILL_AREA_STYLE($,(#261));
#261=FILL_AREA_STYLE_COLOUR($,#262);
#262=COLOUR_RGB('',0.309803921568627,0.309803921568627,0.309803921568627);
ENDSEC;
END-ISO-10303-21;
