ISO-10303-21;
HEADER;
/* Generated by software containing ST-Developer
 * from STEP Tools, Inc. (www.steptools.com) 
 */

FILE_DESCRIPTION(
/* description */ ('2" FKM ANSI FLANGE GASKET'),
/* implementation_level */ '2;1');

FILE_NAME(
/* name */ 'E:\\1-3D\\STEP\\AF200GV.stp',
/* time_stamp */ '2020-07-29T11:57:51-04:00',
/* author */ ('MEG'),
/* organization */ (''),
/* preprocessor_version */ 'ST-DEVELOPER v17.2',
/* originating_system */ 'Autodesk Inventor 2019',
/* authorisation */ '');

FILE_SCHEMA (('AUTOMOTIVE_DESIGN { 1 0 10303 214 3 1 1 }'));
ENDSEC;

DATA;
#10=MECHANICAL_DESIGN_GEOMETRIC_PRESENTATION_REPRESENTATION('',(#13),#287);
#11=SHAPE_REPRESENTATION_RELATIONSHIP('SRR','None',#297,#12);
#12=ADVANCED_BREP_SHAPE_REPRESENTATION('',(#14),#286);
#13=STYLED_ITEM('',(#306),#14);
#14=MANIFOLD_SOLID_BREP('Solid1',#157);
#15=FACE_BOUND('',#42,.T.);
#16=FACE_BOUND('',#43,.T.);
#17=FACE_BOUND('',#44,.T.);
#18=FACE_BOUND('',#45,.T.);
#19=FACE_BOUND('',#46,.T.);
#20=FACE_BOUND('',#48,.T.);
#21=FACE_BOUND('',#49,.T.);
#22=FACE_BOUND('',#50,.T.);
#23=FACE_BOUND('',#51,.T.);
#24=FACE_BOUND('',#52,.T.);
#25=PLANE('',#195);
#26=PLANE('',#196);
#27=FACE_OUTER_BOUND('',#35,.T.);
#28=FACE_OUTER_BOUND('',#36,.T.);
#29=FACE_OUTER_BOUND('',#37,.T.);
#30=FACE_OUTER_BOUND('',#38,.T.);
#31=FACE_OUTER_BOUND('',#39,.T.);
#32=FACE_OUTER_BOUND('',#40,.T.);
#33=FACE_OUTER_BOUND('',#41,.T.);
#34=FACE_OUTER_BOUND('',#47,.T.);
#35=EDGE_LOOP('',(#107,#108,#109,#110));
#36=EDGE_LOOP('',(#111,#112,#113,#114));
#37=EDGE_LOOP('',(#115,#116,#117,#118));
#38=EDGE_LOOP('',(#119,#120,#121,#122));
#39=EDGE_LOOP('',(#123,#124,#125,#126));
#40=EDGE_LOOP('',(#127,#128,#129,#130));
#41=EDGE_LOOP('',(#131));
#42=EDGE_LOOP('',(#132));
#43=EDGE_LOOP('',(#133));
#44=EDGE_LOOP('',(#134));
#45=EDGE_LOOP('',(#135));
#46=EDGE_LOOP('',(#136));
#47=EDGE_LOOP('',(#137));
#48=EDGE_LOOP('',(#138));
#49=EDGE_LOOP('',(#139));
#50=EDGE_LOOP('',(#140));
#51=EDGE_LOOP('',(#141));
#52=EDGE_LOOP('',(#142));
#53=LINE('',#250,#59);
#54=LINE('',#256,#60);
#55=LINE('',#262,#61);
#56=LINE('',#268,#62);
#57=LINE('',#274,#63);
#58=LINE('',#280,#64);
#59=VECTOR('',#203,1.1875);
#60=VECTOR('',#210,0.375);
#61=VECTOR('',#217,0.375);
#62=VECTOR('',#224,0.375);
#63=VECTOR('',#231,0.375);
#64=VECTOR('',#238,3.);
#65=CIRCLE('',#178,1.1875);
#66=CIRCLE('',#179,1.1875);
#67=CIRCLE('',#181,0.375);
#68=CIRCLE('',#182,0.375);
#69=CIRCLE('',#184,0.375);
#70=CIRCLE('',#185,0.375);
#71=CIRCLE('',#187,0.375);
#72=CIRCLE('',#188,0.375);
#73=CIRCLE('',#190,0.375);
#74=CIRCLE('',#191,0.375);
#75=CIRCLE('',#193,3.);
#76=CIRCLE('',#194,3.);
#77=VERTEX_POINT('',#247);
#78=VERTEX_POINT('',#249);
#79=VERTEX_POINT('',#253);
#80=VERTEX_POINT('',#255);
#81=VERTEX_POINT('',#259);
#82=VERTEX_POINT('',#261);
#83=VERTEX_POINT('',#265);
#84=VERTEX_POINT('',#267);
#85=VERTEX_POINT('',#271);
#86=VERTEX_POINT('',#273);
#87=VERTEX_POINT('',#277);
#88=VERTEX_POINT('',#279);
#89=EDGE_CURVE('',#77,#77,#65,.T.);
#90=EDGE_CURVE('',#77,#78,#53,.T.);
#91=EDGE_CURVE('',#78,#78,#66,.T.);
#92=EDGE_CURVE('',#79,#79,#67,.T.);
#93=EDGE_CURVE('',#79,#80,#54,.T.);
#94=EDGE_CURVE('',#80,#80,#68,.T.);
#95=EDGE_CURVE('',#81,#81,#69,.T.);
#96=EDGE_CURVE('',#81,#82,#55,.T.);
#97=EDGE_CURVE('',#82,#82,#70,.T.);
#98=EDGE_CURVE('',#83,#83,#71,.T.);
#99=EDGE_CURVE('',#83,#84,#56,.T.);
#100=EDGE_CURVE('',#84,#84,#72,.T.);
#101=EDGE_CURVE('',#85,#85,#73,.T.);
#102=EDGE_CURVE('',#85,#86,#57,.T.);
#103=EDGE_CURVE('',#86,#86,#74,.T.);
#104=EDGE_CURVE('',#87,#87,#75,.T.);
#105=EDGE_CURVE('',#87,#88,#58,.T.);
#106=EDGE_CURVE('',#88,#88,#76,.T.);
#107=ORIENTED_EDGE('',*,*,#89,.F.);
#108=ORIENTED_EDGE('',*,*,#90,.T.);
#109=ORIENTED_EDGE('',*,*,#91,.F.);
#110=ORIENTED_EDGE('',*,*,#90,.F.);
#111=ORIENTED_EDGE('',*,*,#92,.F.);
#112=ORIENTED_EDGE('',*,*,#93,.T.);
#113=ORIENTED_EDGE('',*,*,#94,.F.);
#114=ORIENTED_EDGE('',*,*,#93,.F.);
#115=ORIENTED_EDGE('',*,*,#95,.F.);
#116=ORIENTED_EDGE('',*,*,#96,.T.);
#117=ORIENTED_EDGE('',*,*,#97,.F.);
#118=ORIENTED_EDGE('',*,*,#96,.F.);
#119=ORIENTED_EDGE('',*,*,#98,.F.);
#120=ORIENTED_EDGE('',*,*,#99,.T.);
#121=ORIENTED_EDGE('',*,*,#100,.F.);
#122=ORIENTED_EDGE('',*,*,#99,.F.);
#123=ORIENTED_EDGE('',*,*,#101,.F.);
#124=ORIENTED_EDGE('',*,*,#102,.T.);
#125=ORIENTED_EDGE('',*,*,#103,.F.);
#126=ORIENTED_EDGE('',*,*,#102,.F.);
#127=ORIENTED_EDGE('',*,*,#104,.T.);
#128=ORIENTED_EDGE('',*,*,#105,.T.);
#129=ORIENTED_EDGE('',*,*,#106,.F.);
#130=ORIENTED_EDGE('',*,*,#105,.F.);
#131=ORIENTED_EDGE('',*,*,#104,.F.);
#132=ORIENTED_EDGE('',*,*,#91,.T.);
#133=ORIENTED_EDGE('',*,*,#94,.T.);
#134=ORIENTED_EDGE('',*,*,#97,.T.);
#135=ORIENTED_EDGE('',*,*,#100,.T.);
#136=ORIENTED_EDGE('',*,*,#103,.T.);
#137=ORIENTED_EDGE('',*,*,#106,.T.);
#138=ORIENTED_EDGE('',*,*,#89,.T.);
#139=ORIENTED_EDGE('',*,*,#92,.T.);
#140=ORIENTED_EDGE('',*,*,#95,.T.);
#141=ORIENTED_EDGE('',*,*,#98,.T.);
#142=ORIENTED_EDGE('',*,*,#101,.T.);
#143=CYLINDRICAL_SURFACE('',#177,1.1875);
#144=CYLINDRICAL_SURFACE('',#180,0.375);
#145=CYLINDRICAL_SURFACE('',#183,0.375);
#146=CYLINDRICAL_SURFACE('',#186,0.375);
#147=CYLINDRICAL_SURFACE('',#189,0.375);
#148=CYLINDRICAL_SURFACE('',#192,3.);
#149=ADVANCED_FACE('',(#27),#143,.F.);
#150=ADVANCED_FACE('',(#28),#144,.F.);
#151=ADVANCED_FACE('',(#29),#145,.F.);
#152=ADVANCED_FACE('',(#30),#146,.F.);
#153=ADVANCED_FACE('',(#31),#147,.F.);
#154=ADVANCED_FACE('',(#32),#148,.T.);
#155=ADVANCED_FACE('',(#33,#15,#16,#17,#18,#19),#25,.F.);
#156=ADVANCED_FACE('',(#34,#20,#21,#22,#23,#24),#26,.T.);
#157=CLOSED_SHELL('',(#149,#150,#151,#152,#153,#154,#155,#156));
#158=DERIVED_UNIT_ELEMENT(#160,1.);
#159=DERIVED_UNIT_ELEMENT(#291,3.);
#160=(
MASS_UNIT()
NAMED_UNIT(*)
SI_UNIT($,.GRAM.)
);
#161=DERIVED_UNIT((#158,#159));
#162=MEASURE_REPRESENTATION_ITEM('density measure',
POSITIVE_RATIO_MEASURE(0.93),#161);
#163=PROPERTY_DEFINITION_REPRESENTATION(#168,#165);
#164=PROPERTY_DEFINITION_REPRESENTATION(#169,#166);
#165=REPRESENTATION('material name',(#167),#286);
#166=REPRESENTATION('density',(#162),#286);
#167=DESCRIPTIVE_REPRESENTATION_ITEM('FKM, BROWN','FKM, BROWN');
#168=PROPERTY_DEFINITION('material property','material name',#299);
#169=PROPERTY_DEFINITION('material property','density of part',#299);
#170=DATE_TIME_ROLE('creation_date');
#171=APPLIED_DATE_AND_TIME_ASSIGNMENT(#172,#170,(#299));
#172=DATE_AND_TIME(#173,#174);
#173=CALENDAR_DATE(1994,30,9);
#174=LOCAL_TIME(13,6,20.,#175);
#175=COORDINATED_UNIVERSAL_TIME_OFFSET(0,0,.BEHIND.);
#176=AXIS2_PLACEMENT_3D('placement',#245,#197,#198);
#177=AXIS2_PLACEMENT_3D('',#246,#199,#200);
#178=AXIS2_PLACEMENT_3D('',#248,#201,#202);
#179=AXIS2_PLACEMENT_3D('',#251,#204,#205);
#180=AXIS2_PLACEMENT_3D('',#252,#206,#207);
#181=AXIS2_PLACEMENT_3D('',#254,#208,#209);
#182=AXIS2_PLACEMENT_3D('',#257,#211,#212);
#183=AXIS2_PLACEMENT_3D('',#258,#213,#214);
#184=AXIS2_PLACEMENT_3D('',#260,#215,#216);
#185=AXIS2_PLACEMENT_3D('',#263,#218,#219);
#186=AXIS2_PLACEMENT_3D('',#264,#220,#221);
#187=AXIS2_PLACEMENT_3D('',#266,#222,#223);
#188=AXIS2_PLACEMENT_3D('',#269,#225,#226);
#189=AXIS2_PLACEMENT_3D('',#270,#227,#228);
#190=AXIS2_PLACEMENT_3D('',#272,#229,#230);
#191=AXIS2_PLACEMENT_3D('',#275,#232,#233);
#192=AXIS2_PLACEMENT_3D('',#276,#234,#235);
#193=AXIS2_PLACEMENT_3D('',#278,#236,#237);
#194=AXIS2_PLACEMENT_3D('',#281,#239,#240);
#195=AXIS2_PLACEMENT_3D('',#282,#241,#242);
#196=AXIS2_PLACEMENT_3D('',#283,#243,#244);
#197=DIRECTION('axis',(0.,0.,1.));
#198=DIRECTION('refdir',(1.,0.,0.));
#199=DIRECTION('center_axis',(0.,0.,1.));
#200=DIRECTION('ref_axis',(-1.,0.,0.));
#201=DIRECTION('center_axis',(0.,0.,1.));
#202=DIRECTION('ref_axis',(-1.,0.,0.));
#203=DIRECTION('',(0.,0.,1.));
#204=DIRECTION('center_axis',(0.,0.,-1.));
#205=DIRECTION('ref_axis',(-1.,0.,0.));
#206=DIRECTION('center_axis',(0.,0.,1.));
#207=DIRECTION('ref_axis',(-1.,0.,0.));
#208=DIRECTION('center_axis',(0.,0.,1.));
#209=DIRECTION('ref_axis',(-1.,0.,0.));
#210=DIRECTION('',(0.,0.,1.));
#211=DIRECTION('center_axis',(0.,0.,-1.));
#212=DIRECTION('ref_axis',(-1.,0.,0.));
#213=DIRECTION('center_axis',(0.,0.,1.));
#214=DIRECTION('ref_axis',(-1.,0.,0.));
#215=DIRECTION('center_axis',(0.,0.,1.));
#216=DIRECTION('ref_axis',(-1.,0.,0.));
#217=DIRECTION('',(0.,0.,1.));
#218=DIRECTION('center_axis',(0.,0.,-1.));
#219=DIRECTION('ref_axis',(-1.,0.,0.));
#220=DIRECTION('center_axis',(0.,0.,1.));
#221=DIRECTION('ref_axis',(-1.,0.,0.));
#222=DIRECTION('center_axis',(0.,0.,1.));
#223=DIRECTION('ref_axis',(-1.,0.,0.));
#224=DIRECTION('',(0.,0.,1.));
#225=DIRECTION('center_axis',(0.,0.,-1.));
#226=DIRECTION('ref_axis',(-1.,0.,0.));
#227=DIRECTION('center_axis',(0.,0.,1.));
#228=DIRECTION('ref_axis',(-1.,0.,0.));
#229=DIRECTION('center_axis',(0.,0.,1.));
#230=DIRECTION('ref_axis',(-1.,0.,0.));
#231=DIRECTION('',(0.,0.,1.));
#232=DIRECTION('center_axis',(0.,0.,-1.));
#233=DIRECTION('ref_axis',(-1.,0.,0.));
#234=DIRECTION('center_axis',(0.,0.,1.));
#235=DIRECTION('ref_axis',(-1.,0.,0.));
#236=DIRECTION('center_axis',(0.,0.,-1.));
#237=DIRECTION('ref_axis',(-1.,0.,0.));
#238=DIRECTION('',(0.,0.,-1.));
#239=DIRECTION('center_axis',(0.,0.,-1.));
#240=DIRECTION('ref_axis',(-1.,0.,0.));
#241=DIRECTION('center_axis',(0.,0.,-1.));
#242=DIRECTION('ref_axis',(-1.,0.,0.));
#243=DIRECTION('center_axis',(0.,0.,-1.));
#244=DIRECTION('ref_axis',(-1.,0.,0.));
#245=CARTESIAN_POINT('',(0.,0.,0.));
#246=CARTESIAN_POINT('Origin',(0.,0.,0.));
#247=CARTESIAN_POINT('',(1.1875,1.45426807398748E-16,0.));
#248=CARTESIAN_POINT('Origin',(0.,0.,0.));
#249=CARTESIAN_POINT('',(1.1875,1.45426807398748E-16,0.118));
#250=CARTESIAN_POINT('',(1.1875,1.45426807398748E-16,0.));
#251=CARTESIAN_POINT('Origin',(0.,0.,0.118));
#252=CARTESIAN_POINT('Origin',(2.375,0.,0.));
#253=CARTESIAN_POINT('',(2.75,4.59242549680257E-17,0.));
#254=CARTESIAN_POINT('Origin',(2.375,0.,0.));
#255=CARTESIAN_POINT('',(2.75,4.59242549680257E-17,0.118));
#256=CARTESIAN_POINT('',(2.75,4.59242549680257E-17,0.));
#257=CARTESIAN_POINT('Origin',(2.375,0.,0.118));
#258=CARTESIAN_POINT('Origin',(0.,-2.375,0.));
#259=CARTESIAN_POINT('',(0.375,-2.375,0.));
#260=CARTESIAN_POINT('Origin',(0.,-2.375,0.));
#261=CARTESIAN_POINT('',(0.375,-2.375,0.118));
#262=CARTESIAN_POINT('',(0.375,-2.375,0.));
#263=CARTESIAN_POINT('Origin',(0.,-2.375,0.118));
#264=CARTESIAN_POINT('Origin',(-2.375,0.,0.));
#265=CARTESIAN_POINT('',(-2.,4.59242549680257E-17,0.));
#266=CARTESIAN_POINT('Origin',(-2.375,0.,0.));
#267=CARTESIAN_POINT('',(-2.,4.59242549680257E-17,0.118));
#268=CARTESIAN_POINT('',(-2.,4.59242549680257E-17,0.));
#269=CARTESIAN_POINT('Origin',(-2.375,0.,0.118));
#270=CARTESIAN_POINT('Origin',(0.,2.375,0.));
#271=CARTESIAN_POINT('',(0.375,2.375,0.));
#272=CARTESIAN_POINT('Origin',(0.,2.375,0.));
#273=CARTESIAN_POINT('',(0.375,2.375,0.118));
#274=CARTESIAN_POINT('',(0.375,2.375,0.));
#275=CARTESIAN_POINT('Origin',(0.,2.375,0.118));
#276=CARTESIAN_POINT('Origin',(0.,0.,0.));
#277=CARTESIAN_POINT('',(3.,3.67394039744206E-16,0.118));
#278=CARTESIAN_POINT('Origin',(0.,0.,0.118));
#279=CARTESIAN_POINT('',(3.,3.67394039744206E-16,0.));
#280=CARTESIAN_POINT('',(3.,3.67394039744206E-16,0.));
#281=CARTESIAN_POINT('Origin',(0.,0.,0.));
#282=CARTESIAN_POINT('Origin',(0.,0.,0.118));
#283=CARTESIAN_POINT('Origin',(0.,0.,0.));
#284=UNCERTAINTY_MEASURE_WITH_UNIT(LENGTH_MEASURE(0.000393700787401575),
#289,'DISTANCE_ACCURACY_VALUE',
'Maximum model space distance between geometric entities at asserted c
onnectivities');
#285=UNCERTAINTY_MEASURE_WITH_UNIT(LENGTH_MEASURE(0.000393700787401575),
#289,'DISTANCE_ACCURACY_VALUE',
'Maximum model space distance between geometric entities at asserted c
onnectivities');
#286=(
GEOMETRIC_REPRESENTATION_CONTEXT(3)
GLOBAL_UNCERTAINTY_ASSIGNED_CONTEXT((#284))
GLOBAL_UNIT_ASSIGNED_CONTEXT((#289,#293,#294))
REPRESENTATION_CONTEXT('','3D')
);
#287=(
GEOMETRIC_REPRESENTATION_CONTEXT(3)
GLOBAL_UNCERTAINTY_ASSIGNED_CONTEXT((#285))
GLOBAL_UNIT_ASSIGNED_CONTEXT((#289,#293,#294))
REPRESENTATION_CONTEXT('','3D')
);
#288=DIMENSIONAL_EXPONENTS(1.,0.,0.,0.,0.,0.,0.);
#289=(
CONVERSION_BASED_UNIT('inch',#292)
LENGTH_UNIT()
NAMED_UNIT(#288)
);
#290=(
LENGTH_UNIT()
NAMED_UNIT(*)
SI_UNIT(.MILLI.,.METRE.)
);
#291=(
LENGTH_UNIT()
NAMED_UNIT(*)
SI_UNIT(.CENTI.,.METRE.)
);
#292=LENGTH_MEASURE_WITH_UNIT(LENGTH_MEASURE(25.4),#290);
#293=(
NAMED_UNIT(*)
PLANE_ANGLE_UNIT()
SI_UNIT($,.RADIAN.)
);
#294=(
NAMED_UNIT(*)
SI_UNIT($,.STERADIAN.)
SOLID_ANGLE_UNIT()
);
#295=SHAPE_DEFINITION_REPRESENTATION(#296,#297);
#296=PRODUCT_DEFINITION_SHAPE('',$,#299);
#297=SHAPE_REPRESENTATION('',(#176),#286);
#298=PRODUCT_DEFINITION_CONTEXT('part definition',#303,'design');
#299=PRODUCT_DEFINITION('AF200GV','AF200GV',#300,#298);
#300=PRODUCT_DEFINITION_FORMATION('00',$,#305);
#301=PRODUCT_RELATED_PRODUCT_CATEGORY('AF200GV','AF200GV',(#305));
#302=APPLICATION_PROTOCOL_DEFINITION('international standard',
'automotive_design',2009,#303);
#303=APPLICATION_CONTEXT(
'Core Data for Automotive Mechanical Design Process');
#304=PRODUCT_CONTEXT('part definition',#303,'mechanical');
#305=PRODUCT('AF200GV','AF200GV','2" FKM ANSI FLANGE GASKET',(#304));
#306=PRESENTATION_STYLE_ASSIGNMENT((#307));
#307=SURFACE_STYLE_USAGE(.BOTH.,#310);
#308=SURFACE_STYLE_RENDERING_WITH_PROPERTIES($,#314,(#309));
#309=SURFACE_STYLE_TRANSPARENT(0.);
#310=SURFACE_SIDE_STYLE('',(#311,#308));
#311=SURFACE_STYLE_FILL_AREA(#312);
#312=FILL_AREA_STYLE('',(#313));
#313=FILL_AREA_STYLE_COLOUR('',#314);
#314=COLOUR_RGB('',0.474509803921569,0.23921568627451,0.);
ENDSEC;
END-ISO-10303-21;
