ISO-10303-21;
HEADER;
/* Generated by software containing ST-Developer
 * from STEP Tools, Inc. (www.steptools.com) 
 */

FILE_DESCRIPTION(
/* description */ ('4" FKM ANSI FLANGE GASKET   '),
/* implementation_level */ '2;1');

FILE_NAME(
/* name */ 'E:\\1-3D\\STEP\\AF400GV.stp',
/* time_stamp */ '2020-07-29T11:29:13-04:00',
/* author */ ('MEG'),
/* organization */ (''),
/* preprocessor_version */ 'ST-DEVELOPER v17.2',
/* originating_system */ 'Autodesk Inventor 2019',
/* authorisation */ '');

FILE_SCHEMA (('AUTOMOTIVE_DESIGN { 1 0 10303 214 3 1 1 }'));
ENDSEC;

DATA;
#10=MECHANICAL_DESIGN_GEOMETRIC_PRESENTATION_REPRESENTATION('',(#13),#443);
#11=SHAPE_REPRESENTATION_RELATIONSHIP('SRR','None',#453,#12);
#12=ADVANCED_BREP_SHAPE_REPRESENTATION('',(#14),#442);
#13=STYLED_ITEM('',(#462),#14);
#14=MANIFOLD_SOLID_BREP('Solid1',#249);
#15=FACE_BOUND('',#58,.T.);
#16=FACE_BOUND('',#59,.T.);
#17=FACE_BOUND('',#60,.T.);
#18=FACE_BOUND('',#61,.T.);
#19=FACE_BOUND('',#62,.T.);
#20=FACE_BOUND('',#63,.T.);
#21=FACE_BOUND('',#64,.T.);
#22=FACE_BOUND('',#65,.T.);
#23=FACE_BOUND('',#66,.T.);
#24=FACE_BOUND('',#68,.T.);
#25=FACE_BOUND('',#69,.T.);
#26=FACE_BOUND('',#70,.T.);
#27=FACE_BOUND('',#71,.T.);
#28=FACE_BOUND('',#72,.T.);
#29=FACE_BOUND('',#73,.T.);
#30=FACE_BOUND('',#74,.T.);
#31=FACE_BOUND('',#75,.T.);
#32=FACE_BOUND('',#76,.T.);
#33=PLANE('',#299);
#34=PLANE('',#300);
#35=FACE_OUTER_BOUND('',#47,.T.);
#36=FACE_OUTER_BOUND('',#48,.T.);
#37=FACE_OUTER_BOUND('',#49,.T.);
#38=FACE_OUTER_BOUND('',#50,.T.);
#39=FACE_OUTER_BOUND('',#51,.T.);
#40=FACE_OUTER_BOUND('',#52,.T.);
#41=FACE_OUTER_BOUND('',#53,.T.);
#42=FACE_OUTER_BOUND('',#54,.T.);
#43=FACE_OUTER_BOUND('',#55,.T.);
#44=FACE_OUTER_BOUND('',#56,.T.);
#45=FACE_OUTER_BOUND('',#57,.T.);
#46=FACE_OUTER_BOUND('',#67,.T.);
#47=EDGE_LOOP('',(#167,#168,#169,#170));
#48=EDGE_LOOP('',(#171,#172,#173,#174));
#49=EDGE_LOOP('',(#175,#176,#177,#178));
#50=EDGE_LOOP('',(#179,#180,#181,#182));
#51=EDGE_LOOP('',(#183,#184,#185,#186));
#52=EDGE_LOOP('',(#187,#188,#189,#190));
#53=EDGE_LOOP('',(#191,#192,#193,#194));
#54=EDGE_LOOP('',(#195,#196,#197,#198));
#55=EDGE_LOOP('',(#199,#200,#201,#202));
#56=EDGE_LOOP('',(#203,#204,#205,#206));
#57=EDGE_LOOP('',(#207));
#58=EDGE_LOOP('',(#208));
#59=EDGE_LOOP('',(#209));
#60=EDGE_LOOP('',(#210));
#61=EDGE_LOOP('',(#211));
#62=EDGE_LOOP('',(#212));
#63=EDGE_LOOP('',(#213));
#64=EDGE_LOOP('',(#214));
#65=EDGE_LOOP('',(#215));
#66=EDGE_LOOP('',(#216));
#67=EDGE_LOOP('',(#217));
#68=EDGE_LOOP('',(#218));
#69=EDGE_LOOP('',(#219));
#70=EDGE_LOOP('',(#220));
#71=EDGE_LOOP('',(#221));
#72=EDGE_LOOP('',(#222));
#73=EDGE_LOOP('',(#223));
#74=EDGE_LOOP('',(#224));
#75=EDGE_LOOP('',(#225));
#76=EDGE_LOOP('',(#226));
#77=LINE('',#382,#87);
#78=LINE('',#388,#88);
#79=LINE('',#394,#89);
#80=LINE('',#400,#90);
#81=LINE('',#406,#91);
#82=LINE('',#412,#92);
#83=LINE('',#418,#93);
#84=LINE('',#424,#94);
#85=LINE('',#430,#95);
#86=LINE('',#436,#96);
#87=VECTOR('',#307,2.25);
#88=VECTOR('',#314,0.375);
#89=VECTOR('',#321,0.375);
#90=VECTOR('',#328,0.375);
#91=VECTOR('',#335,0.375);
#92=VECTOR('',#342,0.375);
#93=VECTOR('',#349,0.375);
#94=VECTOR('',#356,0.375);
#95=VECTOR('',#363,0.375);
#96=VECTOR('',#370,4.5);
#97=CIRCLE('',#270,2.25);
#98=CIRCLE('',#271,2.25);
#99=CIRCLE('',#273,0.375);
#100=CIRCLE('',#274,0.375);
#101=CIRCLE('',#276,0.375);
#102=CIRCLE('',#277,0.375);
#103=CIRCLE('',#279,0.375);
#104=CIRCLE('',#280,0.375);
#105=CIRCLE('',#282,0.375);
#106=CIRCLE('',#283,0.375);
#107=CIRCLE('',#285,0.375);
#108=CIRCLE('',#286,0.375);
#109=CIRCLE('',#288,0.375);
#110=CIRCLE('',#289,0.375);
#111=CIRCLE('',#291,0.375);
#112=CIRCLE('',#292,0.375);
#113=CIRCLE('',#294,0.375);
#114=CIRCLE('',#295,0.375);
#115=CIRCLE('',#297,4.5);
#116=CIRCLE('',#298,4.5);
#117=VERTEX_POINT('',#379);
#118=VERTEX_POINT('',#381);
#119=VERTEX_POINT('',#385);
#120=VERTEX_POINT('',#387);
#121=VERTEX_POINT('',#391);
#122=VERTEX_POINT('',#393);
#123=VERTEX_POINT('',#397);
#124=VERTEX_POINT('',#399);
#125=VERTEX_POINT('',#403);
#126=VERTEX_POINT('',#405);
#127=VERTEX_POINT('',#409);
#128=VERTEX_POINT('',#411);
#129=VERTEX_POINT('',#415);
#130=VERTEX_POINT('',#417);
#131=VERTEX_POINT('',#421);
#132=VERTEX_POINT('',#423);
#133=VERTEX_POINT('',#427);
#134=VERTEX_POINT('',#429);
#135=VERTEX_POINT('',#433);
#136=VERTEX_POINT('',#435);
#137=EDGE_CURVE('',#117,#117,#97,.T.);
#138=EDGE_CURVE('',#117,#118,#77,.T.);
#139=EDGE_CURVE('',#118,#118,#98,.T.);
#140=EDGE_CURVE('',#119,#119,#99,.T.);
#141=EDGE_CURVE('',#119,#120,#78,.T.);
#142=EDGE_CURVE('',#120,#120,#100,.T.);
#143=EDGE_CURVE('',#121,#121,#101,.T.);
#144=EDGE_CURVE('',#121,#122,#79,.T.);
#145=EDGE_CURVE('',#122,#122,#102,.T.);
#146=EDGE_CURVE('',#123,#123,#103,.T.);
#147=EDGE_CURVE('',#123,#124,#80,.T.);
#148=EDGE_CURVE('',#124,#124,#104,.T.);
#149=EDGE_CURVE('',#125,#125,#105,.T.);
#150=EDGE_CURVE('',#125,#126,#81,.T.);
#151=EDGE_CURVE('',#126,#126,#106,.T.);
#152=EDGE_CURVE('',#127,#127,#107,.T.);
#153=EDGE_CURVE('',#127,#128,#82,.T.);
#154=EDGE_CURVE('',#128,#128,#108,.T.);
#155=EDGE_CURVE('',#129,#129,#109,.T.);
#156=EDGE_CURVE('',#129,#130,#83,.T.);
#157=EDGE_CURVE('',#130,#130,#110,.T.);
#158=EDGE_CURVE('',#131,#131,#111,.T.);
#159=EDGE_CURVE('',#131,#132,#84,.T.);
#160=EDGE_CURVE('',#132,#132,#112,.T.);
#161=EDGE_CURVE('',#133,#133,#113,.T.);
#162=EDGE_CURVE('',#133,#134,#85,.T.);
#163=EDGE_CURVE('',#134,#134,#114,.T.);
#164=EDGE_CURVE('',#135,#135,#115,.T.);
#165=EDGE_CURVE('',#135,#136,#86,.T.);
#166=EDGE_CURVE('',#136,#136,#116,.T.);
#167=ORIENTED_EDGE('',*,*,#137,.F.);
#168=ORIENTED_EDGE('',*,*,#138,.T.);
#169=ORIENTED_EDGE('',*,*,#139,.F.);
#170=ORIENTED_EDGE('',*,*,#138,.F.);
#171=ORIENTED_EDGE('',*,*,#140,.F.);
#172=ORIENTED_EDGE('',*,*,#141,.T.);
#173=ORIENTED_EDGE('',*,*,#142,.F.);
#174=ORIENTED_EDGE('',*,*,#141,.F.);
#175=ORIENTED_EDGE('',*,*,#143,.F.);
#176=ORIENTED_EDGE('',*,*,#144,.T.);
#177=ORIENTED_EDGE('',*,*,#145,.F.);
#178=ORIENTED_EDGE('',*,*,#144,.F.);
#179=ORIENTED_EDGE('',*,*,#146,.F.);
#180=ORIENTED_EDGE('',*,*,#147,.T.);
#181=ORIENTED_EDGE('',*,*,#148,.F.);
#182=ORIENTED_EDGE('',*,*,#147,.F.);
#183=ORIENTED_EDGE('',*,*,#149,.F.);
#184=ORIENTED_EDGE('',*,*,#150,.T.);
#185=ORIENTED_EDGE('',*,*,#151,.F.);
#186=ORIENTED_EDGE('',*,*,#150,.F.);
#187=ORIENTED_EDGE('',*,*,#152,.F.);
#188=ORIENTED_EDGE('',*,*,#153,.T.);
#189=ORIENTED_EDGE('',*,*,#154,.F.);
#190=ORIENTED_EDGE('',*,*,#153,.F.);
#191=ORIENTED_EDGE('',*,*,#155,.F.);
#192=ORIENTED_EDGE('',*,*,#156,.T.);
#193=ORIENTED_EDGE('',*,*,#157,.F.);
#194=ORIENTED_EDGE('',*,*,#156,.F.);
#195=ORIENTED_EDGE('',*,*,#158,.F.);
#196=ORIENTED_EDGE('',*,*,#159,.T.);
#197=ORIENTED_EDGE('',*,*,#160,.F.);
#198=ORIENTED_EDGE('',*,*,#159,.F.);
#199=ORIENTED_EDGE('',*,*,#161,.F.);
#200=ORIENTED_EDGE('',*,*,#162,.T.);
#201=ORIENTED_EDGE('',*,*,#163,.F.);
#202=ORIENTED_EDGE('',*,*,#162,.F.);
#203=ORIENTED_EDGE('',*,*,#164,.T.);
#204=ORIENTED_EDGE('',*,*,#165,.T.);
#205=ORIENTED_EDGE('',*,*,#166,.F.);
#206=ORIENTED_EDGE('',*,*,#165,.F.);
#207=ORIENTED_EDGE('',*,*,#164,.F.);
#208=ORIENTED_EDGE('',*,*,#139,.T.);
#209=ORIENTED_EDGE('',*,*,#142,.T.);
#210=ORIENTED_EDGE('',*,*,#145,.T.);
#211=ORIENTED_EDGE('',*,*,#148,.T.);
#212=ORIENTED_EDGE('',*,*,#151,.T.);
#213=ORIENTED_EDGE('',*,*,#154,.T.);
#214=ORIENTED_EDGE('',*,*,#157,.T.);
#215=ORIENTED_EDGE('',*,*,#160,.T.);
#216=ORIENTED_EDGE('',*,*,#163,.T.);
#217=ORIENTED_EDGE('',*,*,#166,.T.);
#218=ORIENTED_EDGE('',*,*,#137,.T.);
#219=ORIENTED_EDGE('',*,*,#140,.T.);
#220=ORIENTED_EDGE('',*,*,#143,.T.);
#221=ORIENTED_EDGE('',*,*,#146,.T.);
#222=ORIENTED_EDGE('',*,*,#149,.T.);
#223=ORIENTED_EDGE('',*,*,#152,.T.);
#224=ORIENTED_EDGE('',*,*,#155,.T.);
#225=ORIENTED_EDGE('',*,*,#158,.T.);
#226=ORIENTED_EDGE('',*,*,#161,.T.);
#227=CYLINDRICAL_SURFACE('',#269,2.25);
#228=CYLINDRICAL_SURFACE('',#272,0.375);
#229=CYLINDRICAL_SURFACE('',#275,0.375);
#230=CYLINDRICAL_SURFACE('',#278,0.375);
#231=CYLINDRICAL_SURFACE('',#281,0.375);
#232=CYLINDRICAL_SURFACE('',#284,0.375);
#233=CYLINDRICAL_SURFACE('',#287,0.375);
#234=CYLINDRICAL_SURFACE('',#290,0.375);
#235=CYLINDRICAL_SURFACE('',#293,0.375);
#236=CYLINDRICAL_SURFACE('',#296,4.5);
#237=ADVANCED_FACE('',(#35),#227,.F.);
#238=ADVANCED_FACE('',(#36),#228,.F.);
#239=ADVANCED_FACE('',(#37),#229,.F.);
#240=ADVANCED_FACE('',(#38),#230,.F.);
#241=ADVANCED_FACE('',(#39),#231,.F.);
#242=ADVANCED_FACE('',(#40),#232,.F.);
#243=ADVANCED_FACE('',(#41),#233,.F.);
#244=ADVANCED_FACE('',(#42),#234,.F.);
#245=ADVANCED_FACE('',(#43),#235,.F.);
#246=ADVANCED_FACE('',(#44),#236,.T.);
#247=ADVANCED_FACE('',(#45,#15,#16,#17,#18,#19,#20,#21,#22,#23),#33,.F.);
#248=ADVANCED_FACE('',(#46,#24,#25,#26,#27,#28,#29,#30,#31,#32),#34,.T.);
#249=CLOSED_SHELL('',(#237,#238,#239,#240,#241,#242,#243,#244,#245,#246,
#247,#248));
#250=DERIVED_UNIT_ELEMENT(#252,1.);
#251=DERIVED_UNIT_ELEMENT(#447,3.);
#252=(
MASS_UNIT()
NAMED_UNIT(*)
SI_UNIT($,.GRAM.)
);
#253=DERIVED_UNIT((#250,#251));
#254=MEASURE_REPRESENTATION_ITEM('density measure',
POSITIVE_RATIO_MEASURE(0.93),#253);
#255=PROPERTY_DEFINITION_REPRESENTATION(#260,#257);
#256=PROPERTY_DEFINITION_REPRESENTATION(#261,#258);
#257=REPRESENTATION('material name',(#259),#442);
#258=REPRESENTATION('density',(#254),#442);
#259=DESCRIPTIVE_REPRESENTATION_ITEM('FKM, BROWN','FKM, BROWN');
#260=PROPERTY_DEFINITION('material property','material name',#455);
#261=PROPERTY_DEFINITION('material property','density of part',#455);
#262=DATE_TIME_ROLE('creation_date');
#263=APPLIED_DATE_AND_TIME_ASSIGNMENT(#264,#262,(#455));
#264=DATE_AND_TIME(#265,#266);
#265=CALENDAR_DATE(1994,30,9);
#266=LOCAL_TIME(13,5,55.,#267);
#267=COORDINATED_UNIVERSAL_TIME_OFFSET(0,0,.BEHIND.);
#268=AXIS2_PLACEMENT_3D('placement',#377,#301,#302);
#269=AXIS2_PLACEMENT_3D('',#378,#303,#304);
#270=AXIS2_PLACEMENT_3D('',#380,#305,#306);
#271=AXIS2_PLACEMENT_3D('',#383,#308,#309);
#272=AXIS2_PLACEMENT_3D('',#384,#310,#311);
#273=AXIS2_PLACEMENT_3D('',#386,#312,#313);
#274=AXIS2_PLACEMENT_3D('',#389,#315,#316);
#275=AXIS2_PLACEMENT_3D('',#390,#317,#318);
#276=AXIS2_PLACEMENT_3D('',#392,#319,#320);
#277=AXIS2_PLACEMENT_3D('',#395,#322,#323);
#278=AXIS2_PLACEMENT_3D('',#396,#324,#325);
#279=AXIS2_PLACEMENT_3D('',#398,#326,#327);
#280=AXIS2_PLACEMENT_3D('',#401,#329,#330);
#281=AXIS2_PLACEMENT_3D('',#402,#331,#332);
#282=AXIS2_PLACEMENT_3D('',#404,#333,#334);
#283=AXIS2_PLACEMENT_3D('',#407,#336,#337);
#284=AXIS2_PLACEMENT_3D('',#408,#338,#339);
#285=AXIS2_PLACEMENT_3D('',#410,#340,#341);
#286=AXIS2_PLACEMENT_3D('',#413,#343,#344);
#287=AXIS2_PLACEMENT_3D('',#414,#345,#346);
#288=AXIS2_PLACEMENT_3D('',#416,#347,#348);
#289=AXIS2_PLACEMENT_3D('',#419,#350,#351);
#290=AXIS2_PLACEMENT_3D('',#420,#352,#353);
#291=AXIS2_PLACEMENT_3D('',#422,#354,#355);
#292=AXIS2_PLACEMENT_3D('',#425,#357,#358);
#293=AXIS2_PLACEMENT_3D('',#426,#359,#360);
#294=AXIS2_PLACEMENT_3D('',#428,#361,#362);
#295=AXIS2_PLACEMENT_3D('',#431,#364,#365);
#296=AXIS2_PLACEMENT_3D('',#432,#366,#367);
#297=AXIS2_PLACEMENT_3D('',#434,#368,#369);
#298=AXIS2_PLACEMENT_3D('',#437,#371,#372);
#299=AXIS2_PLACEMENT_3D('',#438,#373,#374);
#300=AXIS2_PLACEMENT_3D('',#439,#375,#376);
#301=DIRECTION('axis',(0.,0.,1.));
#302=DIRECTION('refdir',(1.,0.,0.));
#303=DIRECTION('center_axis',(0.,0.,1.));
#304=DIRECTION('ref_axis',(-1.,0.,0.));
#305=DIRECTION('center_axis',(0.,0.,1.));
#306=DIRECTION('ref_axis',(-1.,0.,0.));
#307=DIRECTION('',(0.,0.,1.));
#308=DIRECTION('center_axis',(0.,0.,-1.));
#309=DIRECTION('ref_axis',(-1.,0.,0.));
#310=DIRECTION('center_axis',(0.,0.,1.));
#311=DIRECTION('ref_axis',(-1.,0.,0.));
#312=DIRECTION('center_axis',(0.,0.,1.));
#313=DIRECTION('ref_axis',(-1.,0.,0.));
#314=DIRECTION('',(0.,0.,1.));
#315=DIRECTION('center_axis',(0.,0.,-1.));
#316=DIRECTION('ref_axis',(-1.,0.,0.));
#317=DIRECTION('center_axis',(0.,0.,1.));
#318=DIRECTION('ref_axis',(-1.,0.,0.));
#319=DIRECTION('center_axis',(0.,0.,1.));
#320=DIRECTION('ref_axis',(-1.,0.,0.));
#321=DIRECTION('',(0.,0.,1.));
#322=DIRECTION('center_axis',(0.,0.,-1.));
#323=DIRECTION('ref_axis',(-1.,0.,0.));
#324=DIRECTION('center_axis',(0.,0.,1.));
#325=DIRECTION('ref_axis',(-1.,0.,0.));
#326=DIRECTION('center_axis',(0.,0.,1.));
#327=DIRECTION('ref_axis',(-1.,0.,0.));
#328=DIRECTION('',(0.,0.,1.));
#329=DIRECTION('center_axis',(0.,0.,-1.));
#330=DIRECTION('ref_axis',(-1.,0.,0.));
#331=DIRECTION('center_axis',(0.,0.,1.));
#332=DIRECTION('ref_axis',(-1.,0.,0.));
#333=DIRECTION('center_axis',(0.,0.,1.));
#334=DIRECTION('ref_axis',(-1.,0.,0.));
#335=DIRECTION('',(0.,0.,1.));
#336=DIRECTION('center_axis',(0.,0.,-1.));
#337=DIRECTION('ref_axis',(-1.,0.,0.));
#338=DIRECTION('center_axis',(0.,0.,1.));
#339=DIRECTION('ref_axis',(-1.,0.,0.));
#340=DIRECTION('center_axis',(0.,0.,1.));
#341=DIRECTION('ref_axis',(-1.,0.,0.));
#342=DIRECTION('',(0.,0.,1.));
#343=DIRECTION('center_axis',(0.,0.,-1.));
#344=DIRECTION('ref_axis',(-1.,0.,0.));
#345=DIRECTION('center_axis',(0.,0.,1.));
#346=DIRECTION('ref_axis',(-1.,0.,0.));
#347=DIRECTION('center_axis',(0.,0.,1.));
#348=DIRECTION('ref_axis',(-1.,0.,0.));
#349=DIRECTION('',(0.,0.,1.));
#350=DIRECTION('center_axis',(0.,0.,-1.));
#351=DIRECTION('ref_axis',(-1.,0.,0.));
#352=DIRECTION('center_axis',(0.,0.,1.));
#353=DIRECTION('ref_axis',(-1.,0.,0.));
#354=DIRECTION('center_axis',(0.,0.,1.));
#355=DIRECTION('ref_axis',(-1.,0.,0.));
#356=DIRECTION('',(0.,0.,1.));
#357=DIRECTION('center_axis',(0.,0.,-1.));
#358=DIRECTION('ref_axis',(-1.,0.,0.));
#359=DIRECTION('center_axis',(0.,0.,1.));
#360=DIRECTION('ref_axis',(-1.,0.,0.));
#361=DIRECTION('center_axis',(0.,0.,1.));
#362=DIRECTION('ref_axis',(-1.,0.,0.));
#363=DIRECTION('',(0.,0.,1.));
#364=DIRECTION('center_axis',(0.,0.,-1.));
#365=DIRECTION('ref_axis',(-1.,0.,0.));
#366=DIRECTION('center_axis',(0.,0.,1.));
#367=DIRECTION('ref_axis',(-1.,0.,0.));
#368=DIRECTION('center_axis',(0.,0.,-1.));
#369=DIRECTION('ref_axis',(-1.,0.,0.));
#370=DIRECTION('',(0.,0.,-1.));
#371=DIRECTION('center_axis',(0.,0.,-1.));
#372=DIRECTION('ref_axis',(-1.,0.,0.));
#373=DIRECTION('center_axis',(0.,0.,-1.));
#374=DIRECTION('ref_axis',(-1.,0.,0.));
#375=DIRECTION('center_axis',(0.,0.,-1.));
#376=DIRECTION('ref_axis',(-1.,0.,0.));
#377=CARTESIAN_POINT('',(0.,0.,0.));
#378=CARTESIAN_POINT('Origin',(0.,0.,0.));
#379=CARTESIAN_POINT('',(2.25,2.75545529808154E-16,0.));
#380=CARTESIAN_POINT('Origin',(0.,0.,0.));
#381=CARTESIAN_POINT('',(2.25,2.75545529808154E-16,0.118));
#382=CARTESIAN_POINT('',(2.25,2.75545529808154E-16,0.));
#383=CARTESIAN_POINT('Origin',(0.,0.,0.118));
#384=CARTESIAN_POINT('Origin',(2.65165042944955,2.65165042944955,0.));
#385=CARTESIAN_POINT('',(3.02665042944955,2.65165042944955,0.));
#386=CARTESIAN_POINT('Origin',(2.65165042944955,2.65165042944955,0.));
#387=CARTESIAN_POINT('',(3.02665042944955,2.65165042944955,0.118));
#388=CARTESIAN_POINT('',(3.02665042944955,2.65165042944955,0.));
#389=CARTESIAN_POINT('Origin',(2.65165042944955,2.65165042944955,0.118));
#390=CARTESIAN_POINT('Origin',(3.75,-6.88863824520386E-16,0.));
#391=CARTESIAN_POINT('',(4.125,-6.4293956955236E-16,0.));
#392=CARTESIAN_POINT('Origin',(3.75,-6.88863824520386E-16,0.));
#393=CARTESIAN_POINT('',(4.125,-6.4293956955236E-16,0.118));
#394=CARTESIAN_POINT('',(4.125,-6.4293956955236E-16,0.));
#395=CARTESIAN_POINT('Origin',(3.75,-6.88863824520386E-16,0.118));
#396=CARTESIAN_POINT('Origin',(2.65165042944955,-2.65165042944955,0.));
#397=CARTESIAN_POINT('',(3.02665042944955,-2.65165042944955,0.));
#398=CARTESIAN_POINT('Origin',(2.65165042944955,-2.65165042944955,0.));
#399=CARTESIAN_POINT('',(3.02665042944955,-2.65165042944955,0.118));
#400=CARTESIAN_POINT('',(3.02665042944955,-2.65165042944955,0.));
#401=CARTESIAN_POINT('Origin',(2.65165042944955,-2.65165042944955,0.118));
#402=CARTESIAN_POINT('Origin',(-4.59242549680257E-16,-3.75,0.));
#403=CARTESIAN_POINT('',(0.375,-3.75,0.));
#404=CARTESIAN_POINT('Origin',(-4.59242549680257E-16,-3.75,0.));
#405=CARTESIAN_POINT('',(0.375,-3.75,0.118));
#406=CARTESIAN_POINT('',(0.375,-3.75,0.));
#407=CARTESIAN_POINT('Origin',(-4.59242549680257E-16,-3.75,0.118));
#408=CARTESIAN_POINT('Origin',(-2.65165042944955,-2.65165042944955,0.));
#409=CARTESIAN_POINT('',(-2.27665042944955,-2.65165042944955,0.));
#410=CARTESIAN_POINT('Origin',(-2.65165042944955,-2.65165042944955,0.));
#411=CARTESIAN_POINT('',(-2.27665042944955,-2.65165042944955,0.118));
#412=CARTESIAN_POINT('',(-2.27665042944955,-2.65165042944955,0.));
#413=CARTESIAN_POINT('Origin',(-2.65165042944955,-2.65165042944955,0.118));
#414=CARTESIAN_POINT('Origin',(-3.75,2.29621274840129E-16,0.));
#415=CARTESIAN_POINT('',(-3.375,2.75545529808154E-16,0.));
#416=CARTESIAN_POINT('Origin',(-3.75,2.29621274840129E-16,0.));
#417=CARTESIAN_POINT('',(-3.375,2.75545529808154E-16,0.118));
#418=CARTESIAN_POINT('',(-3.375,2.75545529808154E-16,0.));
#419=CARTESIAN_POINT('Origin',(-3.75,2.29621274840129E-16,0.118));
#420=CARTESIAN_POINT('Origin',(-2.65165042944955,2.65165042944955,0.));
#421=CARTESIAN_POINT('',(-2.27665042944955,2.65165042944955,0.));
#422=CARTESIAN_POINT('Origin',(-2.65165042944955,2.65165042944955,0.));
#423=CARTESIAN_POINT('',(-2.27665042944955,2.65165042944955,0.118));
#424=CARTESIAN_POINT('',(-2.27665042944955,2.65165042944955,0.));
#425=CARTESIAN_POINT('Origin',(-2.65165042944955,2.65165042944955,0.118));
#426=CARTESIAN_POINT('Origin',(0.,3.75,0.));
#427=CARTESIAN_POINT('',(0.375,3.75,0.));
#428=CARTESIAN_POINT('Origin',(0.,3.75,0.));
#429=CARTESIAN_POINT('',(0.375,3.75,0.118));
#430=CARTESIAN_POINT('',(0.375,3.75,0.));
#431=CARTESIAN_POINT('Origin',(0.,3.75,0.118));
#432=CARTESIAN_POINT('Origin',(0.,0.,0.));
#433=CARTESIAN_POINT('',(4.5,5.51091059616309E-16,0.118));
#434=CARTESIAN_POINT('Origin',(0.,0.,0.118));
#435=CARTESIAN_POINT('',(4.5,5.51091059616309E-16,0.));
#436=CARTESIAN_POINT('',(4.5,5.51091059616309E-16,0.));
#437=CARTESIAN_POINT('Origin',(0.,0.,0.));
#438=CARTESIAN_POINT('Origin',(0.,0.,0.118));
#439=CARTESIAN_POINT('Origin',(0.,0.,0.));
#440=UNCERTAINTY_MEASURE_WITH_UNIT(LENGTH_MEASURE(0.000393700787401575),
#445,'DISTANCE_ACCURACY_VALUE',
'Maximum model space distance between geometric entities at asserted c
onnectivities');
#441=UNCERTAINTY_MEASURE_WITH_UNIT(LENGTH_MEASURE(0.000393700787401575),
#445,'DISTANCE_ACCURACY_VALUE',
'Maximum model space distance between geometric entities at asserted c
onnectivities');
#442=(
GEOMETRIC_REPRESENTATION_CONTEXT(3)
GLOBAL_UNCERTAINTY_ASSIGNED_CONTEXT((#440))
GLOBAL_UNIT_ASSIGNED_CONTEXT((#445,#449,#450))
REPRESENTATION_CONTEXT('','3D')
);
#443=(
GEOMETRIC_REPRESENTATION_CONTEXT(3)
GLOBAL_UNCERTAINTY_ASSIGNED_CONTEXT((#441))
GLOBAL_UNIT_ASSIGNED_CONTEXT((#445,#449,#450))
REPRESENTATION_CONTEXT('','3D')
);
#444=DIMENSIONAL_EXPONENTS(1.,0.,0.,0.,0.,0.,0.);
#445=(
CONVERSION_BASED_UNIT('inch',#448)
LENGTH_UNIT()
NAMED_UNIT(#444)
);
#446=(
LENGTH_UNIT()
NAMED_UNIT(*)
SI_UNIT(.MILLI.,.METRE.)
);
#447=(
LENGTH_UNIT()
NAMED_UNIT(*)
SI_UNIT(.CENTI.,.METRE.)
);
#448=LENGTH_MEASURE_WITH_UNIT(LENGTH_MEASURE(25.4),#446);
#449=(
NAMED_UNIT(*)
PLANE_ANGLE_UNIT()
SI_UNIT($,.RADIAN.)
);
#450=(
NAMED_UNIT(*)
SI_UNIT($,.STERADIAN.)
SOLID_ANGLE_UNIT()
);
#451=SHAPE_DEFINITION_REPRESENTATION(#452,#453);
#452=PRODUCT_DEFINITION_SHAPE('',$,#455);
#453=SHAPE_REPRESENTATION('',(#268),#442);
#454=PRODUCT_DEFINITION_CONTEXT('part definition',#459,'design');
#455=PRODUCT_DEFINITION('AF400GV','AF400GV',#456,#454);
#456=PRODUCT_DEFINITION_FORMATION('00',$,#461);
#457=PRODUCT_RELATED_PRODUCT_CATEGORY('AF400GV','AF400GV',(#461));
#458=APPLICATION_PROTOCOL_DEFINITION('international standard',
'automotive_design',2009,#459);
#459=APPLICATION_CONTEXT(
'Core Data for Automotive Mechanical Design Process');
#460=PRODUCT_CONTEXT('part definition',#459,'mechanical');
#461=PRODUCT('AF400GV','AF400GV','4" FKM ANSI FLANGE GASKET   ',(#460));
#462=PRESENTATION_STYLE_ASSIGNMENT((#463));
#463=SURFACE_STYLE_USAGE(.BOTH.,#466);
#464=SURFACE_STYLE_RENDERING_WITH_PROPERTIES($,#470,(#465));
#465=SURFACE_STYLE_TRANSPARENT(0.);
#466=SURFACE_SIDE_STYLE('',(#467,#464));
#467=SURFACE_STYLE_FILL_AREA(#468);
#468=FILL_AREA_STYLE('',(#469));
#469=FILL_AREA_STYLE_COLOUR('',#470);
#470=COLOUR_RGB('',0.474509803921569,0.23921568627451,0.);
ENDSEC;
END-ISO-10303-21;
