ISO-10303-21;
HEADER;
/* Generated by software containing ST-Developer
 * from STEP Tools, Inc. (www.steptools.com) 
 */

FILE_DESCRIPTION(
/* description */ ('2" BOLTED FLNG FOOT GSKT-FKM '),
/* implementation_level */ '2;1');

FILE_NAME(
/* name */ 'E:\\1-3D\\STEP\\BF200GFV.stp',
/* time_stamp */ '2020-07-29T14:33:04-04:00',
/* author */ ('ETQ'),
/* organization */ (''),
/* preprocessor_version */ 'ST-DEVELOPER v17.2',
/* originating_system */ 'Autodesk Inventor 2019',
/* authorisation */ '');

FILE_SCHEMA (('AUTOMOTIVE_DESIGN { 1 0 10303 214 3 1 1 }'));
ENDSEC;

DATA;
#10=MECHANICAL_DESIGN_GEOMETRIC_PRESENTATION_REPRESENTATION('',(#13),#438);
#11=SHAPE_REPRESENTATION_RELATIONSHIP('SRR','None',#448,#12);
#12=ADVANCED_BREP_SHAPE_REPRESENTATION('',(#14),#437);
#13=STYLED_ITEM('',(#457),#14);
#14=MANIFOLD_SOLID_BREP('Solid2',#244);
#15=FACE_BOUND('',#48,.T.);
#16=FACE_BOUND('',#50,.T.);
#17=PLANE('',#276);
#18=PLANE('',#280);
#19=PLANE('',#284);
#20=PLANE('',#288);
#21=PLANE('',#289);
#22=PLANE('',#290);
#23=FACE_OUTER_BOUND('',#36,.T.);
#24=FACE_OUTER_BOUND('',#37,.T.);
#25=FACE_OUTER_BOUND('',#38,.T.);
#26=FACE_OUTER_BOUND('',#39,.T.);
#27=FACE_OUTER_BOUND('',#40,.T.);
#28=FACE_OUTER_BOUND('',#41,.T.);
#29=FACE_OUTER_BOUND('',#42,.T.);
#30=FACE_OUTER_BOUND('',#43,.T.);
#31=FACE_OUTER_BOUND('',#44,.T.);
#32=FACE_OUTER_BOUND('',#45,.T.);
#33=FACE_OUTER_BOUND('',#46,.T.);
#34=FACE_OUTER_BOUND('',#47,.T.);
#35=FACE_OUTER_BOUND('',#49,.T.);
#36=EDGE_LOOP('',(#158,#159,#160,#161));
#37=EDGE_LOOP('',(#162,#163,#164,#165));
#38=EDGE_LOOP('',(#166,#167,#168,#169));
#39=EDGE_LOOP('',(#170,#171,#172,#173));
#40=EDGE_LOOP('',(#174,#175,#176,#177));
#41=EDGE_LOOP('',(#178,#179,#180,#181));
#42=EDGE_LOOP('',(#182,#183,#184,#185));
#43=EDGE_LOOP('',(#186,#187,#188,#189));
#44=EDGE_LOOP('',(#190,#191,#192,#193));
#45=EDGE_LOOP('',(#194,#195,#196,#197));
#46=EDGE_LOOP('',(#198,#199,#200,#201));
#47=EDGE_LOOP('',(#202,#203,#204,#205,#206,#207,#208,#209,#210,#211));
#48=EDGE_LOOP('',(#212));
#49=EDGE_LOOP('',(#213,#214,#215,#216,#217,#218,#219,#220,#221,#222));
#50=EDGE_LOOP('',(#223));
#51=LINE('',#371,#70);
#52=LINE('',#378,#71);
#53=LINE('',#381,#72);
#54=LINE('',#387,#73);
#55=LINE('',#393,#74);
#56=LINE('',#396,#75);
#57=LINE('',#398,#76);
#58=LINE('',#399,#77);
#59=LINE('',#405,#78);
#60=LINE('',#408,#79);
#61=LINE('',#410,#80);
#62=LINE('',#411,#81);
#63=LINE('',#417,#82);
#64=LINE('',#420,#83);
#65=LINE('',#422,#84);
#66=LINE('',#423,#85);
#67=LINE('',#429,#86);
#68=LINE('',#431,#87);
#69=LINE('',#432,#88);
#70=VECTOR('',#297,0.2109375);
#71=VECTOR('',#304,0.393700787401575);
#72=VECTOR('',#307,0.393700787401575);
#73=VECTOR('',#314,0.393700787401575);
#74=VECTOR('',#321,0.393700787401575);
#75=VECTOR('',#324,0.393700787401575);
#76=VECTOR('',#325,0.393700787401575);
#77=VECTOR('',#326,0.393700787401575);
#78=VECTOR('',#333,0.393700787401575);
#79=VECTOR('',#336,0.393700787401575);
#80=VECTOR('',#337,0.393700787401575);
#81=VECTOR('',#338,0.393700787401575);
#82=VECTOR('',#345,0.393700787401575);
#83=VECTOR('',#348,0.393700787401575);
#84=VECTOR('',#349,0.393700787401575);
#85=VECTOR('',#350,0.393700787401575);
#86=VECTOR('',#357,0.393700787401575);
#87=VECTOR('',#360,0.393700787401575);
#88=VECTOR('',#361,0.393700787401575);
#89=CIRCLE('',#265,0.2109375);
#90=CIRCLE('',#266,0.2109375);
#91=CIRCLE('',#268,0.13);
#92=CIRCLE('',#269,0.13);
#93=CIRCLE('',#271,1.19);
#94=CIRCLE('',#272,1.19);
#95=CIRCLE('',#274,0.13);
#96=CIRCLE('',#275,0.13);
#97=CIRCLE('',#278,0.13);
#98=CIRCLE('',#279,0.13);
#99=CIRCLE('',#282,0.56);
#100=CIRCLE('',#283,0.56);
#101=CIRCLE('',#286,0.13);
#102=CIRCLE('',#287,0.13);
#103=VERTEX_POINT('',#368);
#104=VERTEX_POINT('',#370);
#105=VERTEX_POINT('',#374);
#106=VERTEX_POINT('',#375);
#107=VERTEX_POINT('',#377);
#108=VERTEX_POINT('',#379);
#109=VERTEX_POINT('',#383);
#110=VERTEX_POINT('',#385);
#111=VERTEX_POINT('',#389);
#112=VERTEX_POINT('',#391);
#113=VERTEX_POINT('',#395);
#114=VERTEX_POINT('',#397);
#115=VERTEX_POINT('',#401);
#116=VERTEX_POINT('',#403);
#117=VERTEX_POINT('',#407);
#118=VERTEX_POINT('',#409);
#119=VERTEX_POINT('',#413);
#120=VERTEX_POINT('',#415);
#121=VERTEX_POINT('',#419);
#122=VERTEX_POINT('',#421);
#123=VERTEX_POINT('',#425);
#124=VERTEX_POINT('',#427);
#125=EDGE_CURVE('',#103,#103,#89,.T.);
#126=EDGE_CURVE('',#103,#104,#51,.T.);
#127=EDGE_CURVE('',#104,#104,#90,.T.);
#128=EDGE_CURVE('',#105,#106,#91,.T.);
#129=EDGE_CURVE('',#106,#107,#52,.T.);
#130=EDGE_CURVE('',#108,#107,#92,.T.);
#131=EDGE_CURVE('',#105,#108,#53,.T.);
#132=EDGE_CURVE('',#109,#105,#93,.T.);
#133=EDGE_CURVE('',#110,#108,#94,.T.);
#134=EDGE_CURVE('',#109,#110,#54,.T.);
#135=EDGE_CURVE('',#111,#109,#95,.T.);
#136=EDGE_CURVE('',#112,#110,#96,.T.);
#137=EDGE_CURVE('',#111,#112,#55,.T.);
#138=EDGE_CURVE('',#113,#111,#56,.T.);
#139=EDGE_CURVE('',#114,#112,#57,.T.);
#140=EDGE_CURVE('',#113,#114,#58,.T.);
#141=EDGE_CURVE('',#115,#113,#97,.T.);
#142=EDGE_CURVE('',#116,#114,#98,.T.);
#143=EDGE_CURVE('',#115,#116,#59,.T.);
#144=EDGE_CURVE('',#117,#115,#60,.T.);
#145=EDGE_CURVE('',#118,#116,#61,.T.);
#146=EDGE_CURVE('',#117,#118,#62,.T.);
#147=EDGE_CURVE('',#119,#117,#99,.T.);
#148=EDGE_CURVE('',#120,#118,#100,.T.);
#149=EDGE_CURVE('',#119,#120,#63,.T.);
#150=EDGE_CURVE('',#121,#119,#64,.T.);
#151=EDGE_CURVE('',#122,#120,#65,.T.);
#152=EDGE_CURVE('',#121,#122,#66,.T.);
#153=EDGE_CURVE('',#123,#121,#101,.T.);
#154=EDGE_CURVE('',#124,#122,#102,.T.);
#155=EDGE_CURVE('',#123,#124,#67,.T.);
#156=EDGE_CURVE('',#106,#123,#68,.T.);
#157=EDGE_CURVE('',#107,#124,#69,.T.);
#158=ORIENTED_EDGE('',*,*,#125,.F.);
#159=ORIENTED_EDGE('',*,*,#126,.T.);
#160=ORIENTED_EDGE('',*,*,#127,.F.);
#161=ORIENTED_EDGE('',*,*,#126,.F.);
#162=ORIENTED_EDGE('',*,*,#128,.T.);
#163=ORIENTED_EDGE('',*,*,#129,.T.);
#164=ORIENTED_EDGE('',*,*,#130,.F.);
#165=ORIENTED_EDGE('',*,*,#131,.F.);
#166=ORIENTED_EDGE('',*,*,#132,.T.);
#167=ORIENTED_EDGE('',*,*,#131,.T.);
#168=ORIENTED_EDGE('',*,*,#133,.F.);
#169=ORIENTED_EDGE('',*,*,#134,.F.);
#170=ORIENTED_EDGE('',*,*,#135,.T.);
#171=ORIENTED_EDGE('',*,*,#134,.T.);
#172=ORIENTED_EDGE('',*,*,#136,.F.);
#173=ORIENTED_EDGE('',*,*,#137,.F.);
#174=ORIENTED_EDGE('',*,*,#138,.T.);
#175=ORIENTED_EDGE('',*,*,#137,.T.);
#176=ORIENTED_EDGE('',*,*,#139,.F.);
#177=ORIENTED_EDGE('',*,*,#140,.F.);
#178=ORIENTED_EDGE('',*,*,#141,.T.);
#179=ORIENTED_EDGE('',*,*,#140,.T.);
#180=ORIENTED_EDGE('',*,*,#142,.F.);
#181=ORIENTED_EDGE('',*,*,#143,.F.);
#182=ORIENTED_EDGE('',*,*,#144,.T.);
#183=ORIENTED_EDGE('',*,*,#143,.T.);
#184=ORIENTED_EDGE('',*,*,#145,.F.);
#185=ORIENTED_EDGE('',*,*,#146,.F.);
#186=ORIENTED_EDGE('',*,*,#147,.T.);
#187=ORIENTED_EDGE('',*,*,#146,.T.);
#188=ORIENTED_EDGE('',*,*,#148,.F.);
#189=ORIENTED_EDGE('',*,*,#149,.F.);
#190=ORIENTED_EDGE('',*,*,#150,.T.);
#191=ORIENTED_EDGE('',*,*,#149,.T.);
#192=ORIENTED_EDGE('',*,*,#151,.F.);
#193=ORIENTED_EDGE('',*,*,#152,.F.);
#194=ORIENTED_EDGE('',*,*,#153,.T.);
#195=ORIENTED_EDGE('',*,*,#152,.T.);
#196=ORIENTED_EDGE('',*,*,#154,.F.);
#197=ORIENTED_EDGE('',*,*,#155,.F.);
#198=ORIENTED_EDGE('',*,*,#156,.T.);
#199=ORIENTED_EDGE('',*,*,#155,.T.);
#200=ORIENTED_EDGE('',*,*,#157,.F.);
#201=ORIENTED_EDGE('',*,*,#129,.F.);
#202=ORIENTED_EDGE('',*,*,#157,.T.);
#203=ORIENTED_EDGE('',*,*,#154,.T.);
#204=ORIENTED_EDGE('',*,*,#151,.T.);
#205=ORIENTED_EDGE('',*,*,#148,.T.);
#206=ORIENTED_EDGE('',*,*,#145,.T.);
#207=ORIENTED_EDGE('',*,*,#142,.T.);
#208=ORIENTED_EDGE('',*,*,#139,.T.);
#209=ORIENTED_EDGE('',*,*,#136,.T.);
#210=ORIENTED_EDGE('',*,*,#133,.T.);
#211=ORIENTED_EDGE('',*,*,#130,.T.);
#212=ORIENTED_EDGE('',*,*,#127,.T.);
#213=ORIENTED_EDGE('',*,*,#156,.F.);
#214=ORIENTED_EDGE('',*,*,#128,.F.);
#215=ORIENTED_EDGE('',*,*,#132,.F.);
#216=ORIENTED_EDGE('',*,*,#135,.F.);
#217=ORIENTED_EDGE('',*,*,#138,.F.);
#218=ORIENTED_EDGE('',*,*,#141,.F.);
#219=ORIENTED_EDGE('',*,*,#144,.F.);
#220=ORIENTED_EDGE('',*,*,#147,.F.);
#221=ORIENTED_EDGE('',*,*,#150,.F.);
#222=ORIENTED_EDGE('',*,*,#153,.F.);
#223=ORIENTED_EDGE('',*,*,#125,.T.);
#224=CYLINDRICAL_SURFACE('',#264,0.2109375);
#225=CYLINDRICAL_SURFACE('',#267,0.13);
#226=CYLINDRICAL_SURFACE('',#270,1.19);
#227=CYLINDRICAL_SURFACE('',#273,0.13);
#228=CYLINDRICAL_SURFACE('',#277,0.13);
#229=CYLINDRICAL_SURFACE('',#281,0.56);
#230=CYLINDRICAL_SURFACE('',#285,0.13);
#231=ADVANCED_FACE('',(#23),#224,.F.);
#232=ADVANCED_FACE('',(#24),#225,.T.);
#233=ADVANCED_FACE('',(#25),#226,.F.);
#234=ADVANCED_FACE('',(#26),#227,.T.);
#235=ADVANCED_FACE('',(#27),#17,.T.);
#236=ADVANCED_FACE('',(#28),#228,.T.);
#237=ADVANCED_FACE('',(#29),#18,.T.);
#238=ADVANCED_FACE('',(#30),#229,.T.);
#239=ADVANCED_FACE('',(#31),#19,.T.);
#240=ADVANCED_FACE('',(#32),#230,.T.);
#241=ADVANCED_FACE('',(#33),#20,.T.);
#242=ADVANCED_FACE('',(#34,#15),#21,.T.);
#243=ADVANCED_FACE('',(#35,#16),#22,.F.);
#244=CLOSED_SHELL('',(#231,#232,#233,#234,#235,#236,#237,#238,#239,#240,
#241,#242,#243));
#245=DERIVED_UNIT_ELEMENT(#247,1.);
#246=DERIVED_UNIT_ELEMENT(#442,3.);
#247=(
MASS_UNIT()
NAMED_UNIT(*)
SI_UNIT($,.GRAM.)
);
#248=DERIVED_UNIT((#245,#246));
#249=MEASURE_REPRESENTATION_ITEM('density measure',
POSITIVE_RATIO_MEASURE(0.93),#248);
#250=PROPERTY_DEFINITION_REPRESENTATION(#255,#252);
#251=PROPERTY_DEFINITION_REPRESENTATION(#256,#253);
#252=REPRESENTATION('material name',(#254),#437);
#253=REPRESENTATION('density',(#249),#437);
#254=DESCRIPTIVE_REPRESENTATION_ITEM('FKM, BROWN','FKM, BROWN');
#255=PROPERTY_DEFINITION('material property','material name',#450);
#256=PROPERTY_DEFINITION('material property','density of part',#450);
#257=DATE_TIME_ROLE('creation_date');
#258=APPLIED_DATE_AND_TIME_ASSIGNMENT(#259,#257,(#450));
#259=DATE_AND_TIME(#260,#261);
#260=CALENDAR_DATE(1998,10,9);
#261=LOCAL_TIME(20,1,27.,#262);
#262=COORDINATED_UNIVERSAL_TIME_OFFSET(0,0,.BEHIND.);
#263=AXIS2_PLACEMENT_3D('placement',#366,#291,#292);
#264=AXIS2_PLACEMENT_3D('',#367,#293,#294);
#265=AXIS2_PLACEMENT_3D('',#369,#295,#296);
#266=AXIS2_PLACEMENT_3D('',#372,#298,#299);
#267=AXIS2_PLACEMENT_3D('',#373,#300,#301);
#268=AXIS2_PLACEMENT_3D('',#376,#302,#303);
#269=AXIS2_PLACEMENT_3D('',#380,#305,#306);
#270=AXIS2_PLACEMENT_3D('',#382,#308,#309);
#271=AXIS2_PLACEMENT_3D('',#384,#310,#311);
#272=AXIS2_PLACEMENT_3D('',#386,#312,#313);
#273=AXIS2_PLACEMENT_3D('',#388,#315,#316);
#274=AXIS2_PLACEMENT_3D('',#390,#317,#318);
#275=AXIS2_PLACEMENT_3D('',#392,#319,#320);
#276=AXIS2_PLACEMENT_3D('',#394,#322,#323);
#277=AXIS2_PLACEMENT_3D('',#400,#327,#328);
#278=AXIS2_PLACEMENT_3D('',#402,#329,#330);
#279=AXIS2_PLACEMENT_3D('',#404,#331,#332);
#280=AXIS2_PLACEMENT_3D('',#406,#334,#335);
#281=AXIS2_PLACEMENT_3D('',#412,#339,#340);
#282=AXIS2_PLACEMENT_3D('',#414,#341,#342);
#283=AXIS2_PLACEMENT_3D('',#416,#343,#344);
#284=AXIS2_PLACEMENT_3D('',#418,#346,#347);
#285=AXIS2_PLACEMENT_3D('',#424,#351,#352);
#286=AXIS2_PLACEMENT_3D('',#426,#353,#354);
#287=AXIS2_PLACEMENT_3D('',#428,#355,#356);
#288=AXIS2_PLACEMENT_3D('',#430,#358,#359);
#289=AXIS2_PLACEMENT_3D('',#433,#362,#363);
#290=AXIS2_PLACEMENT_3D('',#434,#364,#365);
#291=DIRECTION('axis',(0.,0.,1.));
#292=DIRECTION('refdir',(1.,0.,0.));
#293=DIRECTION('center_axis',(1.,0.,0.));
#294=DIRECTION('ref_axis',(0.,-1.,0.));
#295=DIRECTION('center_axis',(1.,0.,0.));
#296=DIRECTION('ref_axis',(0.,-1.,0.));
#297=DIRECTION('',(1.,0.,0.));
#298=DIRECTION('center_axis',(-1.,0.,0.));
#299=DIRECTION('ref_axis',(0.,-1.,0.));
#300=DIRECTION('center_axis',(1.,0.,0.));
#301=DIRECTION('ref_axis',(0.,0.553030303030303,-0.833161139234309));
#302=DIRECTION('center_axis',(1.,0.,0.));
#303=DIRECTION('ref_axis',(0.,0.553030303030303,-0.833161139234309));
#304=DIRECTION('',(1.,0.,0.));
#305=DIRECTION('center_axis',(1.,0.,0.));
#306=DIRECTION('ref_axis',(0.,0.553030303030303,-0.833161139234309));
#307=DIRECTION('',(1.,0.,0.));
#308=DIRECTION('center_axis',(1.,0.,0.));
#309=DIRECTION('ref_axis',(0.,0.553030303030303,-0.833161139234309));
#310=DIRECTION('center_axis',(-1.,0.,0.));
#311=DIRECTION('ref_axis',(0.,0.553030303030303,-0.833161139234309));
#312=DIRECTION('center_axis',(-1.,0.,0.));
#313=DIRECTION('ref_axis',(0.,0.553030303030303,-0.833161139234309));
#314=DIRECTION('',(1.,0.,0.));
#315=DIRECTION('center_axis',(1.,0.,0.));
#316=DIRECTION('ref_axis',(0.,0.,-1.));
#317=DIRECTION('center_axis',(1.,0.,0.));
#318=DIRECTION('ref_axis',(0.,0.,-1.));
#319=DIRECTION('center_axis',(1.,0.,0.));
#320=DIRECTION('ref_axis',(0.,0.,-1.));
#321=DIRECTION('',(1.,0.,0.));
#322=DIRECTION('center_axis',(0.,3.42368718698786E-17,-1.));
#323=DIRECTION('ref_axis',(0.,1.,3.42368718698786E-17));
#324=DIRECTION('',(0.,1.,3.42368718698786E-17));
#325=DIRECTION('',(0.,1.,3.42368718698786E-17));
#326=DIRECTION('',(1.,0.,0.));
#327=DIRECTION('center_axis',(1.,0.,0.));
#328=DIRECTION('ref_axis',(0.,-1.,0.));
#329=DIRECTION('center_axis',(1.,0.,0.));
#330=DIRECTION('ref_axis',(0.,-1.,0.));
#331=DIRECTION('center_axis',(1.,0.,0.));
#332=DIRECTION('ref_axis',(0.,-1.,0.));
#333=DIRECTION('',(1.,0.,0.));
#334=DIRECTION('center_axis',(0.,-1.,0.));
#335=DIRECTION('ref_axis',(0.,0.,-1.));
#336=DIRECTION('',(0.,0.,-1.));
#337=DIRECTION('',(0.,0.,-1.));
#338=DIRECTION('',(1.,0.,0.));
#339=DIRECTION('center_axis',(1.,0.,0.));
#340=DIRECTION('ref_axis',(0.,-1.56105599637958E-16,1.));
#341=DIRECTION('center_axis',(1.,0.,0.));
#342=DIRECTION('ref_axis',(0.,-1.56105599637958E-16,1.));
#343=DIRECTION('center_axis',(1.,0.,0.));
#344=DIRECTION('ref_axis',(0.,-1.56105599637958E-16,1.));
#345=DIRECTION('',(1.,0.,0.));
#346=DIRECTION('center_axis',(0.,-2.91397119324188E-16,1.));
#347=DIRECTION('ref_axis',(0.,-1.,-2.91397119324188E-16));
#348=DIRECTION('',(0.,-1.,-2.91397119324188E-16));
#349=DIRECTION('',(0.,-1.,-2.91397119324188E-16));
#350=DIRECTION('',(1.,0.,0.));
#351=DIRECTION('center_axis',(1.,0.,0.));
#352=DIRECTION('ref_axis',(0.,1.,0.));
#353=DIRECTION('center_axis',(1.,0.,0.));
#354=DIRECTION('ref_axis',(0.,1.,0.));
#355=DIRECTION('center_axis',(1.,0.,0.));
#356=DIRECTION('ref_axis',(0.,1.,0.));
#357=DIRECTION('',(1.,0.,0.));
#358=DIRECTION('center_axis',(0.,1.,0.));
#359=DIRECTION('ref_axis',(0.,0.,1.));
#360=DIRECTION('',(0.,0.,1.));
#361=DIRECTION('',(0.,0.,1.));
#362=DIRECTION('center_axis',(1.,0.,0.));
#363=DIRECTION('ref_axis',(0.,0.,-1.));
#364=DIRECTION('center_axis',(1.,0.,0.));
#365=DIRECTION('ref_axis',(0.,0.,-1.));
#366=CARTESIAN_POINT('',(0.,0.,0.));
#367=CARTESIAN_POINT('Origin',(0.,0.56,0.73));
#368=CARTESIAN_POINT('',(0.,0.7709375,0.73));
#369=CARTESIAN_POINT('Origin',(0.,0.56,0.73));
#370=CARTESIAN_POINT('',(0.125,0.7709375,0.73));
#371=CARTESIAN_POINT('',(0.,0.7709375,0.73));
#372=CARTESIAN_POINT('Origin',(0.125,0.56,0.73));
#373=CARTESIAN_POINT('Origin',(0.,1.16,0.499772703789288));
#374=CARTESIAN_POINT('',(0.,1.23189393939394,0.391461755688827));
#375=CARTESIAN_POINT('',(0.,1.29,0.499772703789288));
#376=CARTESIAN_POINT('Origin',(0.,1.16,0.499772703789288));
#377=CARTESIAN_POINT('',(0.125,1.29,0.499772703789288));
#378=CARTESIAN_POINT('',(0.,1.29,0.499772703789288));
#379=CARTESIAN_POINT('',(0.125,1.23189393939394,0.391461755688827));
#380=CARTESIAN_POINT('Origin',(0.125,1.16,0.499772703789288));
#381=CARTESIAN_POINT('',(0.,1.23189393939394,0.391461755688827));
#382=CARTESIAN_POINT('Origin',(0.,1.89,-0.6));
#383=CARTESIAN_POINT('',(0.,0.898538244311173,0.0581060606060606));
#384=CARTESIAN_POINT('Origin',(0.,1.89,-0.6));
#385=CARTESIAN_POINT('',(0.125,0.898538244311173,0.0581060606060605));
#386=CARTESIAN_POINT('Origin',(0.125,1.89,-0.6));
#387=CARTESIAN_POINT('',(0.,0.898538244311173,0.0581060606060606));
#388=CARTESIAN_POINT('Origin',(0.,0.790227296210712,0.13));
#389=CARTESIAN_POINT('',(0.,0.790227296210712,2.26041173453625E-17));
#390=CARTESIAN_POINT('Origin',(0.,0.790227296210712,0.13));
#391=CARTESIAN_POINT('',(0.125,0.790227296210712,0.));
#392=CARTESIAN_POINT('Origin',(0.125,0.790227296210712,0.13));
#393=CARTESIAN_POINT('',(0.,0.790227296210712,2.26041173453625E-17));
#394=CARTESIAN_POINT('Origin',(0.,0.13,0.));
#395=CARTESIAN_POINT('',(0.,0.13,0.));
#396=CARTESIAN_POINT('',(0.,0.13,0.));
#397=CARTESIAN_POINT('',(0.125,0.13,0.));
#398=CARTESIAN_POINT('',(0.125,0.13,0.));
#399=CARTESIAN_POINT('',(0.,0.13,0.));
#400=CARTESIAN_POINT('Origin',(0.,0.13,0.13));
#401=CARTESIAN_POINT('',(0.,0.,0.13));
#402=CARTESIAN_POINT('Origin',(0.,0.13,0.13));
#403=CARTESIAN_POINT('',(0.125,0.,0.13));
#404=CARTESIAN_POINT('Origin',(0.125,0.13,0.13));
#405=CARTESIAN_POINT('',(0.,0.,0.13));
#406=CARTESIAN_POINT('Origin',(0.,0.,0.73));
#407=CARTESIAN_POINT('',(0.,0.,0.73));
#408=CARTESIAN_POINT('',(0.,0.,0.73));
#409=CARTESIAN_POINT('',(0.125,0.,0.73));
#410=CARTESIAN_POINT('',(0.125,0.,0.73));
#411=CARTESIAN_POINT('',(0.,0.,0.73));
#412=CARTESIAN_POINT('Origin',(0.,0.56,0.73));
#413=CARTESIAN_POINT('',(0.,0.56,1.29));
#414=CARTESIAN_POINT('Origin',(0.,0.56,0.73));
#415=CARTESIAN_POINT('',(0.125,0.56,1.29));
#416=CARTESIAN_POINT('Origin',(0.125,0.56,0.73));
#417=CARTESIAN_POINT('',(0.,0.56,1.29));
#418=CARTESIAN_POINT('Origin',(0.,1.16,1.29));
#419=CARTESIAN_POINT('',(0.,1.16,1.29));
#420=CARTESIAN_POINT('',(0.,1.16,1.29));
#421=CARTESIAN_POINT('',(0.125,1.16,1.29));
#422=CARTESIAN_POINT('',(0.125,1.16,1.29));
#423=CARTESIAN_POINT('',(0.,1.16,1.29));
#424=CARTESIAN_POINT('Origin',(0.,1.16,1.16));
#425=CARTESIAN_POINT('',(0.,1.29,1.16));
#426=CARTESIAN_POINT('Origin',(0.,1.16,1.16));
#427=CARTESIAN_POINT('',(0.125,1.29,1.16));
#428=CARTESIAN_POINT('Origin',(0.125,1.16,1.16));
#429=CARTESIAN_POINT('',(0.,1.29,1.16));
#430=CARTESIAN_POINT('Origin',(0.,1.29,0.499772703789288));
#431=CARTESIAN_POINT('',(0.,1.29,0.499772703789288));
#432=CARTESIAN_POINT('',(0.125,1.29,0.499772703789288));
#433=CARTESIAN_POINT('Origin',(0.125,0.639977179663665,0.650022820336335));
#434=CARTESIAN_POINT('Origin',(0.,0.639977179663665,0.650022820336335));
#435=UNCERTAINTY_MEASURE_WITH_UNIT(LENGTH_MEASURE(0.000393700787401575),
#440,'DISTANCE_ACCURACY_VALUE',
'Maximum model space distance between geometric entities at asserted c
onnectivities');
#436=UNCERTAINTY_MEASURE_WITH_UNIT(LENGTH_MEASURE(0.000393700787401575),
#440,'DISTANCE_ACCURACY_VALUE',
'Maximum model space distance between geometric entities at asserted c
onnectivities');
#437=(
GEOMETRIC_REPRESENTATION_CONTEXT(3)
GLOBAL_UNCERTAINTY_ASSIGNED_CONTEXT((#435))
GLOBAL_UNIT_ASSIGNED_CONTEXT((#440,#444,#445))
REPRESENTATION_CONTEXT('','3D')
);
#438=(
GEOMETRIC_REPRESENTATION_CONTEXT(3)
GLOBAL_UNCERTAINTY_ASSIGNED_CONTEXT((#436))
GLOBAL_UNIT_ASSIGNED_CONTEXT((#440,#444,#445))
REPRESENTATION_CONTEXT('','3D')
);
#439=DIMENSIONAL_EXPONENTS(1.,0.,0.,0.,0.,0.,0.);
#440=(
CONVERSION_BASED_UNIT('inch',#443)
LENGTH_UNIT()
NAMED_UNIT(#439)
);
#441=(
LENGTH_UNIT()
NAMED_UNIT(*)
SI_UNIT(.MILLI.,.METRE.)
);
#442=(
LENGTH_UNIT()
NAMED_UNIT(*)
SI_UNIT(.CENTI.,.METRE.)
);
#443=LENGTH_MEASURE_WITH_UNIT(LENGTH_MEASURE(25.4),#441);
#444=(
NAMED_UNIT(*)
PLANE_ANGLE_UNIT()
SI_UNIT($,.RADIAN.)
);
#445=(
NAMED_UNIT(*)
SI_UNIT($,.STERADIAN.)
SOLID_ANGLE_UNIT()
);
#446=SHAPE_DEFINITION_REPRESENTATION(#447,#448);
#447=PRODUCT_DEFINITION_SHAPE('',$,#450);
#448=SHAPE_REPRESENTATION('',(#263),#437);
#449=PRODUCT_DEFINITION_CONTEXT('part definition',#454,'design');
#450=PRODUCT_DEFINITION('BF200GFV','BF200GFV',#451,#449);
#451=PRODUCT_DEFINITION_FORMATION('00',$,#456);
#452=PRODUCT_RELATED_PRODUCT_CATEGORY('BF200GFV','BF200GFV',(#456));
#453=APPLICATION_PROTOCOL_DEFINITION('international standard',
'automotive_design',2009,#454);
#454=APPLICATION_CONTEXT(
'Core Data for Automotive Mechanical Design Process');
#455=PRODUCT_CONTEXT('part definition',#454,'mechanical');
#456=PRODUCT('BF200GFV','BF200GFV','2" BOLTED FLNG FOOT GSKT-FKM ',(#455));
#457=PRESENTATION_STYLE_ASSIGNMENT((#458));
#458=SURFACE_STYLE_USAGE(.BOTH.,#461);
#459=SURFACE_STYLE_RENDERING_WITH_PROPERTIES($,#465,(#460));
#460=SURFACE_STYLE_TRANSPARENT(0.);
#461=SURFACE_SIDE_STYLE('',(#462,#459));
#462=SURFACE_STYLE_FILL_AREA(#463);
#463=FILL_AREA_STYLE('',(#464));
#464=FILL_AREA_STYLE_COLOUR('',#465);
#465=COLOUR_RGB('',0.474509803921569,0.23921568627451,0.);
ENDSEC;
END-ISO-10303-21;
