ISO-10303-21;
HEADER;
/****************************************************************
 * Generated by software with PDElib inside                    *
 * PDElib Version v51a, created Wed 07/06/2011                  *
 * ITI Transcendata (http://www.transcendata.com/)              *
 ****************************************************************/
FILE_DESCRIPTION((''),'2;1');
FILE_NAME('G:\\engineer\\1-3D\\STEP\\BF300GFE.stp','2013-01-11T07:59:22',('areid'),(''),'Autodesk Inventor 2012','Autodesk Inventor 2012','');
FILE_SCHEMA(('AUTOMOTIVE_DESIGN { 1 0 10303 214 1 1 1 1 }'));
ENDSEC;
DATA;
#5=APPLICATION_CONTEXT('automotive design');
#6=APPLICATION_PROTOCOL_DEFINITION('International Standard','automotive_design',2001,#5);
#7=PRODUCT_CONTEXT('',#5,'mechanical');
#8=PRODUCT('BF300GFE','BF300GFE',$,(#7));
#9=PRODUCT_RELATED_PRODUCT_CATEGORY('part',$,(#8));
#10=PRODUCT_DEFINITION_FORMATION('',$,#8);
#11=PRODUCT_DEFINITION_CONTEXT('part definition',#5,'design');
#12=PRODUCT_DEFINITION('',$,#10,#11);
#18=(NAMED_UNIT(*)PLANE_ANGLE_UNIT()SI_UNIT($,.RADIAN.));
#19=DIMENSIONAL_EXPONENTS(0.0,0.0,0.0,0.0,0.0,0.0,0.0);
#20=PLANE_ANGLE_MEASURE_WITH_UNIT(PLANE_ANGLE_MEASURE(0.0174532925),#18);
#24=(CONVERSION_BASED_UNIT('DEGREE',#20)NAMED_UNIT(#19)PLANE_ANGLE_UNIT());
#28=(NAMED_UNIT(*)SI_UNIT($,.STERADIAN.)SOLID_ANGLE_UNIT());
#32=(LENGTH_UNIT()NAMED_UNIT(*)SI_UNIT(.CENTI.,.METRE.));
#33=DIMENSIONAL_EXPONENTS(1.0,0.0,0.0,0.0,0.0,0.0,0.0);
#34=LENGTH_MEASURE_WITH_UNIT(LENGTH_MEASURE(2.54),#32);
#38=(CONVERSION_BASED_UNIT('INCH',#34)LENGTH_UNIT()NAMED_UNIT(#33));
#40=UNCERTAINTY_MEASURE_WITH_UNIT(LENGTH_MEASURE(0.000393700787402),#38,'DISTANCE_ACCURACY_VALUE','');
#42=(GEOMETRIC_REPRESENTATION_CONTEXT(3)GLOBAL_UNCERTAINTY_ASSIGNED_CONTEXT((#40))GLOBAL_UNIT_ASSIGNED_CONTEXT((#24,#28,#38))REPRESENTATION_CONTEXT('None','None'));
#43=AXIS2_PLACEMENT_3D('',#44,#45,#46);
#44=CARTESIAN_POINT('',(0.0,0.0,0.0));
#45=DIRECTION('',(0.0,0.0,1.0));
#46=DIRECTION('',(1.0,0.0,0.0));
#47=SHAPE_REPRESENTATION('',(#43),#42);
#48=PRODUCT_DEFINITION_SHAPE('','',#12);
#49=SHAPE_DEFINITION_REPRESENTATION(#48,#47);
#55=(NAMED_UNIT(*)PLANE_ANGLE_UNIT()SI_UNIT($,.RADIAN.));
#56=DIMENSIONAL_EXPONENTS(0.0,0.0,0.0,0.0,0.0,0.0,0.0);
#57=PLANE_ANGLE_MEASURE_WITH_UNIT(PLANE_ANGLE_MEASURE(0.0174532925),#55);
#61=(CONVERSION_BASED_UNIT('DEGREE',#57)NAMED_UNIT(#56)PLANE_ANGLE_UNIT());
#65=(NAMED_UNIT(*)SI_UNIT($,.STERADIAN.)SOLID_ANGLE_UNIT());
#69=(LENGTH_UNIT()NAMED_UNIT(*)SI_UNIT(.MILLI.,.METRE.));
#71=UNCERTAINTY_MEASURE_WITH_UNIT(LENGTH_MEASURE(0.000001),#69,'DISTANCE_ACCURACY_VALUE','');
#73=(GEOMETRIC_REPRESENTATION_CONTEXT(3)GLOBAL_UNCERTAINTY_ASSIGNED_CONTEXT((#71))GLOBAL_UNIT_ASSIGNED_CONTEXT((#61,#65,#69))REPRESENTATION_CONTEXT('','3D'));
#74=CARTESIAN_POINT('',(4.370957E-017,0.006366230293584,0.0));
#75=DIRECTION('',(0.0,0.0,1.0));
#76=DIRECTION('',(0.0,1.0,0.0));
#77=AXIS2_PLACEMENT_3D('',#74,#75,#76);
#78=CYLINDRICAL_SURFACE('',#77,0.56);
#79=CARTESIAN_POINT('',(-0.321202804356586,0.46509137509542,0.25));
#80=VERTEX_POINT('',#79);
#81=CARTESIAN_POINT('',(0.321202804356586,0.46509137509542,0.25));
#82=VERTEX_POINT('',#81);
#83=CARTESIAN_POINT('',(4.370957E-017,0.006366230293584,0.25));
#84=DIRECTION('',(0.0,0.0,-1.0));
#85=DIRECTION('',(0.0,1.0,0.0));
#86=AXIS2_PLACEMENT_3D('',#83,#84,#85);
#87=CIRCLE('',#86,0.56);
#88=EDGE_CURVE('',#80,#82,#87,.T.);
#89=ORIENTED_EDGE('',*,*,#88,.T.);
#90=CARTESIAN_POINT('',(0.321202804356586,0.46509137509542,0.0));
#91=VERTEX_POINT('',#90);
#92=CARTESIAN_POINT('',(0.321202804356586,0.46509137509542,0.25));
#93=DIRECTION('',(0.0,0.0,-1.0));
#94=VECTOR('',#93,0.25);
#95=LINE('',#92,#94);
#96=EDGE_CURVE('',#82,#91,#95,.T.);
#97=ORIENTED_EDGE('',*,*,#96,.T.);
#98=CARTESIAN_POINT('',(-0.321202804356586,0.46509137509542,0.0));
#99=VERTEX_POINT('',#98);
#100=CARTESIAN_POINT('',(4.370957E-017,0.006366230293584,0.0));
#101=DIRECTION('',(0.0,0.0,1.0));
#102=DIRECTION('',(0.0,1.0,0.0));
#103=AXIS2_PLACEMENT_3D('',#100,#101,#102);
#104=CIRCLE('',#103,0.56);
#105=EDGE_CURVE('',#91,#99,#104,.T.);
#106=ORIENTED_EDGE('',*,*,#105,.T.);
#107=CARTESIAN_POINT('',(-0.321202804356586,0.46509137509542,0.0));
#108=DIRECTION('',(0.0,0.0,1.0));
#109=VECTOR('',#108,0.25);
#110=LINE('',#107,#109);
#111=EDGE_CURVE('',#99,#80,#110,.T.);
#112=ORIENTED_EDGE('',*,*,#111,.T.);
#113=EDGE_LOOP('',(#89,#97,#106,#112));
#114=FACE_OUTER_BOUND('',#113,.T.);
#115=ADVANCED_FACE('',(#114),#78,.T.);
#116=CARTESIAN_POINT('',(-0.856279159775118,0.090426877513586,0.0));
#117=DIRECTION('',(-0.573576436351046,0.819152044288992,0.0));
#118=DIRECTION('',(0.0,0.0,1.0));
#119=AXIS2_PLACEMENT_3D('',#116,#117,#118);
#120=PLANE('',#119);
#121=ORIENTED_EDGE('',*,*,#111,.F.);
#122=CARTESIAN_POINT('',(-0.675098032501338,0.217291268612019,0.0));
#123=VERTEX_POINT('',#122);
#124=CARTESIAN_POINT('',(-0.321202804356586,0.46509137509542,0.0));
#125=DIRECTION('',(-0.819152044288991,-0.573576436351046,0.0));
#126=VECTOR('',#125,0.432026301603051);
#127=LINE('',#124,#126);
#128=EDGE_CURVE('',#99,#123,#127,.T.);
#129=ORIENTED_EDGE('',*,*,#128,.T.);
#130=CARTESIAN_POINT('',(-0.675098032501338,0.217291268612019,0.25));
#131=VERTEX_POINT('',#130);
#132=CARTESIAN_POINT('',(-0.675098032501338,0.217291268612019,0.25));
#133=DIRECTION('',(0.0,0.0,-1.0));
#134=VECTOR('',#133,0.25);
#135=LINE('',#132,#134);
#136=EDGE_CURVE('',#131,#123,#135,.T.);
#137=ORIENTED_EDGE('',*,*,#136,.F.);
#138=CARTESIAN_POINT('',(-0.675098032501338,0.217291268612019,0.25));
#139=DIRECTION('',(0.819152044288991,0.573576436351046,0.0));
#140=VECTOR('',#139,0.432026301603051);
#141=LINE('',#138,#140);
#142=EDGE_CURVE('',#131,#80,#141,.T.);
#143=ORIENTED_EDGE('',*,*,#142,.T.);
#144=EDGE_LOOP('',(#121,#129,#137,#143));
#145=FACE_OUTER_BOUND('',#144,.T.);
#146=ADVANCED_FACE('',(#145),#120,.T.);
#147=CARTESIAN_POINT('',(2.185478E-017,-0.133061539678204,0.0));
#148=DIRECTION('',(0.0,0.0,1.0));
#149=DIRECTION('',(1.0,0.0,0.0));
#150=AXIS2_PLACEMENT_3D('',#147,#148,#149);
#151=PLANE('',#150);
#152=ORIENTED_EDGE('',*,*,#105,.F.);
#153=CARTESIAN_POINT('',(0.675098032501338,0.217291268612019,0.0));
#154=VERTEX_POINT('',#153);
#155=CARTESIAN_POINT('',(0.675098032501338,0.217291268612019,0.0));
#156=DIRECTION('',(-0.819152044288991,0.573576436351046,0.0));
#157=VECTOR('',#156,0.432026301603052);
#158=LINE('',#155,#157);
#159=EDGE_CURVE('',#154,#91,#158,.T.);
#160=ORIENTED_EDGE('',*,*,#159,.F.);
#161=CARTESIAN_POINT('',(0.752440821628308,-0.104864633156701,0.0));
#162=VERTEX_POINT('',#161);
#163=CARTESIAN_POINT('',(0.531703923413577,0.012503257539771,0.0));
#164=DIRECTION('',(0.0,0.0,1.0));
#165=DIRECTION('',(0.972369920397677,0.233445363855906,0.0));
#166=AXIS2_PLACEMENT_3D('',#163,#164,#165);
#167=CIRCLE('',#166,0.25);
#168=EDGE_CURVE('',#162,#154,#167,.T.);
#169=ORIENTED_EDGE('',*,*,#168,.F.);
#170=CARTESIAN_POINT('',(0.416252003327964,-0.737143841087669,0.0));
#171=VERTEX_POINT('',#170);
#172=CARTESIAN_POINT('',(0.416252003327964,-0.737143841087669,0.0));
#173=DIRECTION('',(0.46947156278589,0.882947592858927,0.0));
#174=VECTOR('',#173,0.716100494576001);
#175=LINE('',#172,#174);
#176=EDGE_CURVE('',#171,#162,#175,.T.);
#177=ORIENTED_EDGE('',*,*,#176,.F.);
#178=CARTESIAN_POINT('',(0.17057695395083,-0.86852901794334,0.0));
#179=VERTEX_POINT('',#178);
#180=CARTESIAN_POINT('',(0.195515105113232,-0.619775950391196,0.0));
#181=DIRECTION('',(0.0,0.0,1.0));
#182=DIRECTION('',(0.471589711697183,-0.881818089983058,0.0));
#183=AXIS2_PLACEMENT_3D('',#180,#181,#182);
#184=CIRCLE('',#183,0.25);
#185=EDGE_CURVE('',#179,#171,#184,.T.);
#186=ORIENTED_EDGE('',*,*,#185,.F.);
#187=CARTESIAN_POINT('',(-0.17057695395083,-0.86852901794334,0.0));
#188=VERTEX_POINT('',#187);
#189=CARTESIAN_POINT('',(0.0,-2.57,0.0));
#190=DIRECTION('',(0.0,0.0,-1.0));
#191=DIRECTION('',(-0.195012740153361,-0.980800709205432,0.0));
#192=AXIS2_PLACEMENT_3D('',#189,#190,#191);
#193=CIRCLE('',#192,1.71);
#194=EDGE_CURVE('',#188,#179,#193,.T.);
#195=ORIENTED_EDGE('',*,*,#194,.F.);
#196=CARTESIAN_POINT('',(-0.416252003327964,-0.737143841087669,0.0));
#197=VERTEX_POINT('',#196);
#198=CARTESIAN_POINT('',(-0.195515105113232,-0.619775950391196,0.0));
#199=DIRECTION('',(0.0,0.0,1.0));
#200=DIRECTION('',(-0.471589711697183,-0.881818089983058,0.0));
#201=AXIS2_PLACEMENT_3D('',#198,#199,#200);
#202=CIRCLE('',#201,0.25);
#203=EDGE_CURVE('',#197,#188,#202,.T.);
#204=ORIENTED_EDGE('',*,*,#203,.F.);
#205=CARTESIAN_POINT('',(-0.752440821628308,-0.104864633156701,0.0));
#206=VERTEX_POINT('',#205);
#207=CARTESIAN_POINT('',(-0.752440821628308,-0.104864633156701,0.0));
#208=DIRECTION('',(0.46947156278589,-0.882947592858927,0.0));
#209=VECTOR('',#208,0.716100494576002);
#210=LINE('',#207,#209);
#211=EDGE_CURVE('',#206,#197,#210,.T.);
#212=ORIENTED_EDGE('',*,*,#211,.F.);
#213=CARTESIAN_POINT('',(-0.531703923413576,0.012503257539771,0.0));
#214=DIRECTION('',(0.0,0.0,1.0));
#215=DIRECTION('',(-0.972369920397677,0.233445363855905,0.0));
#216=AXIS2_PLACEMENT_3D('',#213,#214,#215);
#217=CIRCLE('',#216,0.25);
#218=EDGE_CURVE('',#123,#206,#217,.T.);
#219=ORIENTED_EDGE('',*,*,#218,.F.);
#220=ORIENTED_EDGE('',*,*,#128,.F.);
#221=EDGE_LOOP('',(#152,#160,#169,#177,#186,#195,#204,#212,#219,#220));
#222=FACE_OUTER_BOUND('',#221,.T.);
#223=CARTESIAN_POINT('',(0.205,2.510526E-017,0.0));
#224=VERTEX_POINT('',#223);
#225=CARTESIAN_POINT('',(0.0,0.0,0.0));
#226=DIRECTION('',(0.0,0.0,1.0));
#227=DIRECTION('',(-1.0,0.0,0.0));
#228=AXIS2_PLACEMENT_3D('',#225,#226,#227);
#229=CIRCLE('',#228,0.205);
#230=EDGE_CURVE('',#224,#224,#229,.T.);
#231=ORIENTED_EDGE('',*,*,#230,.T.);
#232=EDGE_LOOP('',(#231));
#233=FACE_BOUND('',#232,.T.);
#234=ADVANCED_FACE('',(#222,#233),#151,.F.);
#235=CARTESIAN_POINT('',(-0.531703923413576,0.012503257539771,0.0));
#236=DIRECTION('',(0.0,0.0,1.0));
#237=DIRECTION('',(-0.972369920397677,0.233445363855905,0.0));
#238=AXIS2_PLACEMENT_3D('',#235,#236,#237);
#239=CYLINDRICAL_SURFACE('',#238,0.25);
#240=CARTESIAN_POINT('',(-0.752440821628308,-0.104864633156701,0.25));
#241=VERTEX_POINT('',#240);
#242=CARTESIAN_POINT('',(-0.531703923413576,0.012503257539771,0.25));
#243=DIRECTION('',(0.0,0.0,-1.0));
#244=DIRECTION('',(-0.972369920397677,0.233445363855905,0.0));
#245=AXIS2_PLACEMENT_3D('',#242,#243,#244);
#246=CIRCLE('',#245,0.25);
#247=EDGE_CURVE('',#241,#131,#246,.T.);
#248=ORIENTED_EDGE('',*,*,#247,.T.);
#249=ORIENTED_EDGE('',*,*,#136,.T.);
#250=ORIENTED_EDGE('',*,*,#218,.T.);
#251=CARTESIAN_POINT('',(-0.752440821628308,-0.104864633156701,0.0));
#252=DIRECTION('',(0.0,0.0,1.0));
#253=VECTOR('',#252,0.25);
#254=LINE('',#251,#253);
#255=EDGE_CURVE('',#206,#241,#254,.T.);
#256=ORIENTED_EDGE('',*,*,#255,.T.);
#257=EDGE_LOOP('',(#248,#249,#250,#256));
#258=FACE_OUTER_BOUND('',#257,.T.);
#259=ADVANCED_FACE('',(#258),#239,.T.);
#260=CARTESIAN_POINT('',(-0.333471785662247,-0.892830787258712,0.0));
#261=DIRECTION('',(-0.882947592858927,-0.469471562785891,0.0));
#262=DIRECTION('',(0.0,0.0,1.0));
#263=AXIS2_PLACEMENT_3D('',#260,#261,#262);
#264=PLANE('',#263);
#265=ORIENTED_EDGE('',*,*,#255,.F.);
#266=ORIENTED_EDGE('',*,*,#211,.T.);
#267=CARTESIAN_POINT('',(-0.416252003327964,-0.737143841087669,0.25));
#268=VERTEX_POINT('',#267);
#269=CARTESIAN_POINT('',(-0.416252003327964,-0.737143841087669,0.25));
#270=DIRECTION('',(0.0,0.0,-1.0));
#271=VECTOR('',#270,0.25);
#272=LINE('',#269,#271);
#273=EDGE_CURVE('',#268,#197,#272,.T.);
#274=ORIENTED_EDGE('',*,*,#273,.F.);
#275=CARTESIAN_POINT('',(-0.416252003327964,-0.737143841087669,0.25));
#276=DIRECTION('',(-0.46947156278589,0.882947592858927,0.0));
#277=VECTOR('',#276,0.716100494576002);
#278=LINE('',#275,#277);
#279=EDGE_CURVE('',#268,#241,#278,.T.);
#280=ORIENTED_EDGE('',*,*,#279,.T.);
#281=EDGE_LOOP('',(#265,#266,#274,#280));
#282=FACE_OUTER_BOUND('',#281,.T.);
#283=ADVANCED_FACE('',(#282),#264,.T.);
#284=CARTESIAN_POINT('',(-0.195515105113232,-0.619775950391196,0.0));
#285=DIRECTION('',(0.0,0.0,1.0));
#286=DIRECTION('',(-0.471589711697183,-0.881818089983058,0.0));
#287=AXIS2_PLACEMENT_3D('',#284,#285,#286);
#288=CYLINDRICAL_SURFACE('',#287,0.25);
#289=CARTESIAN_POINT('',(-0.17057695395083,-0.86852901794334,0.25));
#290=VERTEX_POINT('',#289);
#291=CARTESIAN_POINT('',(-0.195515105113232,-0.619775950391196,0.25));
#292=DIRECTION('',(0.0,0.0,-1.0));
#293=DIRECTION('',(-0.471589711697183,-0.881818089983058,0.0));
#294=AXIS2_PLACEMENT_3D('',#291,#292,#293);
#295=CIRCLE('',#294,0.25);
#296=EDGE_CURVE('',#290,#268,#295,.T.);
#297=ORIENTED_EDGE('',*,*,#296,.T.);
#298=ORIENTED_EDGE('',*,*,#273,.T.);
#299=ORIENTED_EDGE('',*,*,#203,.T.);
#300=CARTESIAN_POINT('',(-0.17057695395083,-0.86852901794334,0.0));
#301=DIRECTION('',(0.0,0.0,1.0));
#302=VECTOR('',#301,0.25);
#303=LINE('',#300,#302);
#304=EDGE_CURVE('',#188,#290,#303,.T.);
#305=ORIENTED_EDGE('',*,*,#304,.T.);
#306=EDGE_LOOP('',(#297,#298,#299,#305));
#307=FACE_OUTER_BOUND('',#306,.T.);
#308=ADVANCED_FACE('',(#307),#288,.T.);
#309=CARTESIAN_POINT('',(0.0,-2.57,0.0));
#310=DIRECTION('',(0.0,0.0,1.0));
#311=DIRECTION('',(-0.195012740153361,-0.980800709205432,0.0));
#312=AXIS2_PLACEMENT_3D('',#309,#310,#311);
#313=CYLINDRICAL_SURFACE('',#312,1.71);
#314=ORIENTED_EDGE('',*,*,#304,.F.);
#315=ORIENTED_EDGE('',*,*,#194,.T.);
#316=CARTESIAN_POINT('',(0.17057695395083,-0.86852901794334,0.25));
#317=VERTEX_POINT('',#316);
#318=CARTESIAN_POINT('',(0.17057695395083,-0.86852901794334,0.25));
#319=DIRECTION('',(0.0,0.0,-1.0));
#320=VECTOR('',#319,0.25);
#321=LINE('',#318,#320);
#322=EDGE_CURVE('',#317,#179,#321,.T.);
#323=ORIENTED_EDGE('',*,*,#322,.F.);
#324=CARTESIAN_POINT('',(0.0,-2.57,0.25));
#325=DIRECTION('',(0.0,0.0,1.0));
#326=DIRECTION('',(-0.195012740153361,-0.980800709205432,0.0));
#327=AXIS2_PLACEMENT_3D('',#324,#325,#326);
#328=CIRCLE('',#327,1.71);
#329=EDGE_CURVE('',#317,#290,#328,.T.);
#330=ORIENTED_EDGE('',*,*,#329,.T.);
#331=EDGE_LOOP('',(#314,#315,#323,#330));
#332=FACE_OUTER_BOUND('',#331,.T.);
#333=ADVANCED_FACE('',(#332),#313,.F.);
#334=CARTESIAN_POINT('',(0.195515105113232,-0.619775950391196,0.0));
#335=DIRECTION('',(0.0,0.0,1.0));
#336=DIRECTION('',(0.471589711697183,-0.881818089983058,0.0));
#337=AXIS2_PLACEMENT_3D('',#334,#335,#336);
#338=CYLINDRICAL_SURFACE('',#337,0.25);
#339=CARTESIAN_POINT('',(0.416252003327964,-0.737143841087669,0.25));
#340=VERTEX_POINT('',#339);
#341=CARTESIAN_POINT('',(0.195515105113232,-0.619775950391196,0.25));
#342=DIRECTION('',(0.0,0.0,-1.0));
#343=DIRECTION('',(0.471589711697183,-0.881818089983058,0.0));
#344=AXIS2_PLACEMENT_3D('',#341,#342,#343);
#345=CIRCLE('',#344,0.25);
#346=EDGE_CURVE('',#340,#317,#345,.T.);
#347=ORIENTED_EDGE('',*,*,#346,.T.);
#348=ORIENTED_EDGE('',*,*,#322,.T.);
#349=ORIENTED_EDGE('',*,*,#185,.T.);
#350=CARTESIAN_POINT('',(0.416252003327964,-0.737143841087669,0.0));
#351=DIRECTION('',(0.0,0.0,1.0));
#352=VECTOR('',#351,0.25);
#353=LINE('',#350,#352);
#354=EDGE_CURVE('',#171,#340,#353,.T.);
#355=ORIENTED_EDGE('',*,*,#354,.T.);
#356=EDGE_LOOP('',(#347,#348,#349,#355));
#357=FACE_OUTER_BOUND('',#356,.T.);
#358=ADVANCED_FACE('',(#357),#338,.T.);
#359=CARTESIAN_POINT('',(0.856279159775118,0.090426877513586,0.0));
#360=DIRECTION('',(0.882947592858927,-0.469471562785891,0.0));
#361=DIRECTION('',(0.0,0.0,-1.0));
#362=AXIS2_PLACEMENT_3D('',#359,#360,#361);
#363=PLANE('',#362);
#364=ORIENTED_EDGE('',*,*,#354,.F.);
#365=ORIENTED_EDGE('',*,*,#176,.T.);
#366=CARTESIAN_POINT('',(0.752440821628308,-0.104864633156701,0.25));
#367=VERTEX_POINT('',#366);
#368=CARTESIAN_POINT('',(0.752440821628308,-0.104864633156701,0.25));
#369=DIRECTION('',(0.0,0.0,-1.0));
#370=VECTOR('',#369,0.25);
#371=LINE('',#368,#370);
#372=EDGE_CURVE('',#367,#162,#371,.T.);
#373=ORIENTED_EDGE('',*,*,#372,.F.);
#374=CARTESIAN_POINT('',(0.752440821628308,-0.104864633156701,0.25));
#375=DIRECTION('',(-0.46947156278589,-0.882947592858927,0.0));
#376=VECTOR('',#375,0.716100494576001);
#377=LINE('',#374,#376);
#378=EDGE_CURVE('',#367,#340,#377,.T.);
#379=ORIENTED_EDGE('',*,*,#378,.T.);
#380=EDGE_LOOP('',(#364,#365,#373,#379));
#381=FACE_OUTER_BOUND('',#380,.T.);
#382=ADVANCED_FACE('',(#381),#363,.T.);
#383=CARTESIAN_POINT('',(0.531703923413577,0.012503257539771,0.0));
#384=DIRECTION('',(0.0,0.0,1.0));
#385=DIRECTION('',(0.972369920397677,0.233445363855906,0.0));
#386=AXIS2_PLACEMENT_3D('',#383,#384,#385);
#387=CYLINDRICAL_SURFACE('',#386,0.25);
#388=CARTESIAN_POINT('',(0.675098032501338,0.217291268612019,0.25));
#389=VERTEX_POINT('',#388);
#390=CARTESIAN_POINT('',(0.531703923413577,0.012503257539771,0.25));
#391=DIRECTION('',(0.0,0.0,-1.0));
#392=DIRECTION('',(0.972369920397677,0.233445363855906,0.0));
#393=AXIS2_PLACEMENT_3D('',#390,#391,#392);
#394=CIRCLE('',#393,0.25);
#395=EDGE_CURVE('',#389,#367,#394,.T.);
#396=ORIENTED_EDGE('',*,*,#395,.T.);
#397=ORIENTED_EDGE('',*,*,#372,.T.);
#398=ORIENTED_EDGE('',*,*,#168,.T.);
#399=CARTESIAN_POINT('',(0.675098032501338,0.217291268612019,0.0));
#400=DIRECTION('',(0.0,0.0,1.0));
#401=VECTOR('',#400,0.25);
#402=LINE('',#399,#401);
#403=EDGE_CURVE('',#154,#389,#402,.T.);
#404=ORIENTED_EDGE('',*,*,#403,.T.);
#405=EDGE_LOOP('',(#396,#397,#398,#404));
#406=FACE_OUTER_BOUND('',#405,.T.);
#407=ADVANCED_FACE('',(#406),#387,.T.);
#408=CARTESIAN_POINT('',(0.0,0.0,0.0));
#409=DIRECTION('',(0.0,0.0,1.0));
#410=DIRECTION('',(-1.0,0.0,0.0));
#411=AXIS2_PLACEMENT_3D('',#408,#409,#410);
#412=CYLINDRICAL_SURFACE('',#411,0.205);
#413=CARTESIAN_POINT('',(0.205,2.510526E-017,0.25));
#414=VERTEX_POINT('',#413);
#415=CARTESIAN_POINT('',(0.0,0.0,0.25));
#416=DIRECTION('',(0.0,0.0,-1.0));
#417=DIRECTION('',(-1.0,0.0,0.0));
#418=AXIS2_PLACEMENT_3D('',#415,#416,#417);
#419=CIRCLE('',#418,0.205);
#420=EDGE_CURVE('',#414,#414,#419,.T.);
#421=ORIENTED_EDGE('',*,*,#420,.F.);
#422=EDGE_LOOP('',(#421));
#423=FACE_OUTER_BOUND('',#422,.T.);
#424=ORIENTED_EDGE('',*,*,#230,.F.);
#425=EDGE_LOOP('',(#424));
#426=FACE_BOUND('',#425,.T.);
#427=ADVANCED_FACE('',(#423,#426),#412,.F.);
#428=CARTESIAN_POINT('',(0.0,0.69,0.0));
#429=DIRECTION('',(0.573576436351046,0.819152044288992,0.0));
#430=DIRECTION('',(0.0,0.0,-1.0));
#431=AXIS2_PLACEMENT_3D('',#428,#429,#430);
#432=PLANE('',#431);
#433=ORIENTED_EDGE('',*,*,#96,.F.);
#434=CARTESIAN_POINT('',(0.321202804356586,0.46509137509542,0.25));
#435=DIRECTION('',(0.819152044288991,-0.573576436351046,0.0));
#436=VECTOR('',#435,0.432026301603052);
#437=LINE('',#434,#436);
#438=EDGE_CURVE('',#82,#389,#437,.T.);
#439=ORIENTED_EDGE('',*,*,#438,.T.);
#440=ORIENTED_EDGE('',*,*,#403,.F.);
#441=ORIENTED_EDGE('',*,*,#159,.T.);
#442=EDGE_LOOP('',(#433,#439,#440,#441));
#443=FACE_OUTER_BOUND('',#442,.T.);
#444=ADVANCED_FACE('',(#443),#432,.T.);
#445=CARTESIAN_POINT('',(3.278218E-017,-0.133061539678204,0.25));
#446=DIRECTION('',(0.0,0.0,1.0));
#447=DIRECTION('',(1.0,0.0,0.0));
#448=AXIS2_PLACEMENT_3D('',#445,#446,#447);
#449=PLANE('',#448);
#450=ORIENTED_EDGE('',*,*,#88,.F.);
#451=ORIENTED_EDGE('',*,*,#142,.F.);
#452=ORIENTED_EDGE('',*,*,#247,.F.);
#453=ORIENTED_EDGE('',*,*,#279,.F.);
#454=ORIENTED_EDGE('',*,*,#296,.F.);
#455=ORIENTED_EDGE('',*,*,#329,.F.);
#456=ORIENTED_EDGE('',*,*,#346,.F.);
#457=ORIENTED_EDGE('',*,*,#378,.F.);
#458=ORIENTED_EDGE('',*,*,#395,.F.);
#459=ORIENTED_EDGE('',*,*,#438,.F.);
#460=EDGE_LOOP('',(#450,#451,#452,#453,#454,#455,#456,#457,#458,#459));
#461=FACE_OUTER_BOUND('',#460,.T.);
#462=ORIENTED_EDGE('',*,*,#420,.T.);
#463=EDGE_LOOP('',(#462));
#464=FACE_BOUND('',#463,.T.);
#465=ADVANCED_FACE('',(#461,#464),#449,.T.);
#466=CLOSED_SHELL('',(#115,#146,#234,#259,#283,#308,#333,#358,#382,#407,#427,#444,#465));
#467=MANIFOLD_SOLID_BREP('Solid1',#466);
#468=COLOUR_RGB('Rubber (Black)',0.309803992509842,0.309803992509842,0.309803992509842);
#469=FILL_AREA_STYLE_COLOUR('Rubber (Black)',#468);
#470=FILL_AREA_STYLE('Rubber (Black)',(#469));
#471=SURFACE_STYLE_FILL_AREA(#470);
#472=SURFACE_SIDE_STYLE('Rubber (Black)',(#471));
#473=SURFACE_STYLE_USAGE(.BOTH.,#472);
#474=PRESENTATION_STYLE_ASSIGNMENT((#473));
#475=STYLED_ITEM('',(#474),#467);
#476=MECHANICAL_DESIGN_GEOMETRIC_PRESENTATION_REPRESENTATION('',(#475),#42);
#477=ADVANCED_BREP_SHAPE_REPRESENTATION('ABSR',(#467),#42);
#478=SHAPE_REPRESENTATION_RELATIONSHIP('SRR','None',#477,#47);
ENDSEC;
END-ISO-10303-21;
