ISO-10303-21;
HEADER;
/* Generated by software containing ST-Developer
 * from STEP Tools, Inc. (www.steptools.com) 
 */

FILE_DESCRIPTION(
/* description */ ('3" BOLTED FLNG FOOT GSKT-FKM'),
/* implementation_level */ '2;1');

FILE_NAME(
/* name */ 'E:\\1-3D\\STEP\\BF300GFV.stp',
/* time_stamp */ '2020-07-29T15:42:39-04:00',
/* author */ ('MEG'),
/* organization */ (''),
/* preprocessor_version */ 'ST-DEVELOPER v17.2',
/* originating_system */ 'Autodesk Inventor 2019',
/* authorisation */ '');

FILE_SCHEMA (('AUTOMOTIVE_DESIGN { 1 0 10303 214 3 1 1 }'));
ENDSEC;

DATA;
#10=MECHANICAL_DESIGN_GEOMETRIC_PRESENTATION_REPRESENTATION('',(#13),#438);
#11=SHAPE_REPRESENTATION_RELATIONSHIP('SRR','None',#448,#12);
#12=ADVANCED_BREP_SHAPE_REPRESENTATION('',(#14),#437);
#13=STYLED_ITEM('',(#457),#14);
#14=MANIFOLD_SOLID_BREP('Solid1',#244);
#15=FACE_BOUND('',#39,.T.);
#16=FACE_BOUND('',#50,.T.);
#17=PLANE('',#267);
#18=PLANE('',#268);
#19=PLANE('',#277);
#20=PLANE('',#284);
#21=PLANE('',#289);
#22=PLANE('',#290);
#23=FACE_OUTER_BOUND('',#36,.T.);
#24=FACE_OUTER_BOUND('',#37,.T.);
#25=FACE_OUTER_BOUND('',#38,.T.);
#26=FACE_OUTER_BOUND('',#40,.T.);
#27=FACE_OUTER_BOUND('',#41,.T.);
#28=FACE_OUTER_BOUND('',#42,.T.);
#29=FACE_OUTER_BOUND('',#43,.T.);
#30=FACE_OUTER_BOUND('',#44,.T.);
#31=FACE_OUTER_BOUND('',#45,.T.);
#32=FACE_OUTER_BOUND('',#46,.T.);
#33=FACE_OUTER_BOUND('',#47,.T.);
#34=FACE_OUTER_BOUND('',#48,.T.);
#35=FACE_OUTER_BOUND('',#49,.T.);
#36=EDGE_LOOP('',(#158,#159,#160,#161));
#37=EDGE_LOOP('',(#162,#163,#164,#165));
#38=EDGE_LOOP('',(#166,#167,#168,#169,#170,#171,#172,#173,#174,#175));
#39=EDGE_LOOP('',(#176));
#40=EDGE_LOOP('',(#177,#178,#179,#180));
#41=EDGE_LOOP('',(#181,#182,#183,#184));
#42=EDGE_LOOP('',(#185,#186,#187,#188));
#43=EDGE_LOOP('',(#189,#190,#191,#192));
#44=EDGE_LOOP('',(#193,#194,#195,#196));
#45=EDGE_LOOP('',(#197,#198,#199,#200));
#46=EDGE_LOOP('',(#201,#202,#203,#204));
#47=EDGE_LOOP('',(#205,#206,#207,#208));
#48=EDGE_LOOP('',(#209,#210,#211,#212));
#49=EDGE_LOOP('',(#213,#214,#215,#216,#217,#218,#219,#220,#221,#222));
#50=EDGE_LOOP('',(#223));
#51=LINE('',#372,#70);
#52=LINE('',#375,#71);
#53=LINE('',#378,#72);
#54=LINE('',#380,#73);
#55=LINE('',#381,#74);
#56=LINE('',#384,#75);
#57=LINE('',#388,#76);
#58=LINE('',#396,#77);
#59=LINE('',#403,#78);
#60=LINE('',#406,#79);
#61=LINE('',#407,#80);
#62=LINE('',#411,#81);
#63=LINE('',#414,#82);
#64=LINE('',#419,#83);
#65=LINE('',#422,#84);
#66=LINE('',#423,#85);
#67=LINE('',#427,#86);
#68=LINE('',#430,#87);
#69=LINE('',#433,#88);
#70=VECTOR('',#297,0.393700787401575);
#71=VECTOR('',#300,0.393700787401575);
#72=VECTOR('',#303,0.393700787401575);
#73=VECTOR('',#304,0.393700787401575);
#74=VECTOR('',#305,0.393700787401575);
#75=VECTOR('',#308,0.393700787401575);
#76=VECTOR('',#311,0.393700787401575);
#77=VECTOR('',#318,0.393700787401575);
#78=VECTOR('',#327,0.393700787401575);
#79=VECTOR('',#330,0.393700787401575);
#80=VECTOR('',#331,0.393700787401575);
#81=VECTOR('',#336,0.393700787401575);
#82=VECTOR('',#339,0.393700787401575);
#83=VECTOR('',#346,0.393700787401575);
#84=VECTOR('',#349,0.393700787401575);
#85=VECTOR('',#350,0.393700787401575);
#86=VECTOR('',#355,0.393700787401575);
#87=VECTOR('',#358,0.205);
#88=VECTOR('',#363,0.393700787401575);
#89=CIRCLE('',#265,0.56);
#90=CIRCLE('',#266,0.56);
#91=CIRCLE('',#269,0.25);
#92=CIRCLE('',#270,0.25);
#93=CIRCLE('',#271,1.71);
#94=CIRCLE('',#272,0.25);
#95=CIRCLE('',#273,0.25);
#96=CIRCLE('',#274,0.205);
#97=CIRCLE('',#276,0.25);
#98=CIRCLE('',#279,0.25);
#99=CIRCLE('',#281,1.71);
#100=CIRCLE('',#283,0.25);
#101=CIRCLE('',#286,0.25);
#102=CIRCLE('',#288,0.205);
#103=VERTEX_POINT('',#368);
#104=VERTEX_POINT('',#369);
#105=VERTEX_POINT('',#371);
#106=VERTEX_POINT('',#373);
#107=VERTEX_POINT('',#377);
#108=VERTEX_POINT('',#379);
#109=VERTEX_POINT('',#383);
#110=VERTEX_POINT('',#385);
#111=VERTEX_POINT('',#387);
#112=VERTEX_POINT('',#389);
#113=VERTEX_POINT('',#391);
#114=VERTEX_POINT('',#393);
#115=VERTEX_POINT('',#395);
#116=VERTEX_POINT('',#398);
#117=VERTEX_POINT('',#401);
#118=VERTEX_POINT('',#405);
#119=VERTEX_POINT('',#409);
#120=VERTEX_POINT('',#413);
#121=VERTEX_POINT('',#417);
#122=VERTEX_POINT('',#421);
#123=VERTEX_POINT('',#425);
#124=VERTEX_POINT('',#429);
#125=EDGE_CURVE('',#103,#104,#89,.T.);
#126=EDGE_CURVE('',#104,#105,#51,.T.);
#127=EDGE_CURVE('',#105,#106,#90,.T.);
#128=EDGE_CURVE('',#106,#103,#52,.T.);
#129=EDGE_CURVE('',#106,#107,#53,.T.);
#130=EDGE_CURVE('',#108,#107,#54,.T.);
#131=EDGE_CURVE('',#108,#103,#55,.T.);
#132=EDGE_CURVE('',#109,#105,#56,.T.);
#133=EDGE_CURVE('',#110,#109,#91,.T.);
#134=EDGE_CURVE('',#111,#110,#57,.T.);
#135=EDGE_CURVE('',#112,#111,#92,.T.);
#136=EDGE_CURVE('',#113,#112,#93,.T.);
#137=EDGE_CURVE('',#114,#113,#94,.T.);
#138=EDGE_CURVE('',#115,#114,#58,.T.);
#139=EDGE_CURVE('',#107,#115,#95,.T.);
#140=EDGE_CURVE('',#116,#116,#96,.T.);
#141=EDGE_CURVE('',#117,#108,#97,.T.);
#142=EDGE_CURVE('',#115,#117,#59,.T.);
#143=EDGE_CURVE('',#118,#114,#60,.T.);
#144=EDGE_CURVE('',#118,#117,#61,.T.);
#145=EDGE_CURVE('',#119,#118,#98,.T.);
#146=EDGE_CURVE('',#113,#119,#62,.T.);
#147=EDGE_CURVE('',#120,#112,#63,.T.);
#148=EDGE_CURVE('',#120,#119,#99,.T.);
#149=EDGE_CURVE('',#121,#120,#100,.T.);
#150=EDGE_CURVE('',#111,#121,#64,.T.);
#151=EDGE_CURVE('',#122,#110,#65,.T.);
#152=EDGE_CURVE('',#122,#121,#66,.T.);
#153=EDGE_CURVE('',#123,#122,#101,.T.);
#154=EDGE_CURVE('',#109,#123,#67,.T.);
#155=EDGE_CURVE('',#116,#124,#68,.T.);
#156=EDGE_CURVE('',#124,#124,#102,.T.);
#157=EDGE_CURVE('',#104,#123,#69,.T.);
#158=ORIENTED_EDGE('',*,*,#125,.T.);
#159=ORIENTED_EDGE('',*,*,#126,.T.);
#160=ORIENTED_EDGE('',*,*,#127,.T.);
#161=ORIENTED_EDGE('',*,*,#128,.T.);
#162=ORIENTED_EDGE('',*,*,#128,.F.);
#163=ORIENTED_EDGE('',*,*,#129,.T.);
#164=ORIENTED_EDGE('',*,*,#130,.F.);
#165=ORIENTED_EDGE('',*,*,#131,.T.);
#166=ORIENTED_EDGE('',*,*,#127,.F.);
#167=ORIENTED_EDGE('',*,*,#132,.F.);
#168=ORIENTED_EDGE('',*,*,#133,.F.);
#169=ORIENTED_EDGE('',*,*,#134,.F.);
#170=ORIENTED_EDGE('',*,*,#135,.F.);
#171=ORIENTED_EDGE('',*,*,#136,.F.);
#172=ORIENTED_EDGE('',*,*,#137,.F.);
#173=ORIENTED_EDGE('',*,*,#138,.F.);
#174=ORIENTED_EDGE('',*,*,#139,.F.);
#175=ORIENTED_EDGE('',*,*,#129,.F.);
#176=ORIENTED_EDGE('',*,*,#140,.T.);
#177=ORIENTED_EDGE('',*,*,#141,.T.);
#178=ORIENTED_EDGE('',*,*,#130,.T.);
#179=ORIENTED_EDGE('',*,*,#139,.T.);
#180=ORIENTED_EDGE('',*,*,#142,.T.);
#181=ORIENTED_EDGE('',*,*,#142,.F.);
#182=ORIENTED_EDGE('',*,*,#138,.T.);
#183=ORIENTED_EDGE('',*,*,#143,.F.);
#184=ORIENTED_EDGE('',*,*,#144,.T.);
#185=ORIENTED_EDGE('',*,*,#145,.T.);
#186=ORIENTED_EDGE('',*,*,#143,.T.);
#187=ORIENTED_EDGE('',*,*,#137,.T.);
#188=ORIENTED_EDGE('',*,*,#146,.T.);
#189=ORIENTED_EDGE('',*,*,#146,.F.);
#190=ORIENTED_EDGE('',*,*,#136,.T.);
#191=ORIENTED_EDGE('',*,*,#147,.F.);
#192=ORIENTED_EDGE('',*,*,#148,.T.);
#193=ORIENTED_EDGE('',*,*,#149,.T.);
#194=ORIENTED_EDGE('',*,*,#147,.T.);
#195=ORIENTED_EDGE('',*,*,#135,.T.);
#196=ORIENTED_EDGE('',*,*,#150,.T.);
#197=ORIENTED_EDGE('',*,*,#150,.F.);
#198=ORIENTED_EDGE('',*,*,#134,.T.);
#199=ORIENTED_EDGE('',*,*,#151,.F.);
#200=ORIENTED_EDGE('',*,*,#152,.T.);
#201=ORIENTED_EDGE('',*,*,#153,.T.);
#202=ORIENTED_EDGE('',*,*,#151,.T.);
#203=ORIENTED_EDGE('',*,*,#133,.T.);
#204=ORIENTED_EDGE('',*,*,#154,.T.);
#205=ORIENTED_EDGE('',*,*,#140,.F.);
#206=ORIENTED_EDGE('',*,*,#155,.T.);
#207=ORIENTED_EDGE('',*,*,#156,.F.);
#208=ORIENTED_EDGE('',*,*,#155,.F.);
#209=ORIENTED_EDGE('',*,*,#126,.F.);
#210=ORIENTED_EDGE('',*,*,#157,.T.);
#211=ORIENTED_EDGE('',*,*,#154,.F.);
#212=ORIENTED_EDGE('',*,*,#132,.T.);
#213=ORIENTED_EDGE('',*,*,#125,.F.);
#214=ORIENTED_EDGE('',*,*,#131,.F.);
#215=ORIENTED_EDGE('',*,*,#141,.F.);
#216=ORIENTED_EDGE('',*,*,#144,.F.);
#217=ORIENTED_EDGE('',*,*,#145,.F.);
#218=ORIENTED_EDGE('',*,*,#148,.F.);
#219=ORIENTED_EDGE('',*,*,#149,.F.);
#220=ORIENTED_EDGE('',*,*,#152,.F.);
#221=ORIENTED_EDGE('',*,*,#153,.F.);
#222=ORIENTED_EDGE('',*,*,#157,.F.);
#223=ORIENTED_EDGE('',*,*,#156,.T.);
#224=CYLINDRICAL_SURFACE('',#264,0.56);
#225=CYLINDRICAL_SURFACE('',#275,0.25);
#226=CYLINDRICAL_SURFACE('',#278,0.25);
#227=CYLINDRICAL_SURFACE('',#280,1.71);
#228=CYLINDRICAL_SURFACE('',#282,0.25);
#229=CYLINDRICAL_SURFACE('',#285,0.25);
#230=CYLINDRICAL_SURFACE('',#287,0.205);
#231=ADVANCED_FACE('',(#23),#224,.T.);
#232=ADVANCED_FACE('',(#24),#17,.T.);
#233=ADVANCED_FACE('',(#25,#15),#18,.F.);
#234=ADVANCED_FACE('',(#26),#225,.T.);
#235=ADVANCED_FACE('',(#27),#19,.T.);
#236=ADVANCED_FACE('',(#28),#226,.T.);
#237=ADVANCED_FACE('',(#29),#227,.F.);
#238=ADVANCED_FACE('',(#30),#228,.T.);
#239=ADVANCED_FACE('',(#31),#20,.T.);
#240=ADVANCED_FACE('',(#32),#229,.T.);
#241=ADVANCED_FACE('',(#33),#230,.F.);
#242=ADVANCED_FACE('',(#34),#21,.T.);
#243=ADVANCED_FACE('',(#35,#16),#22,.T.);
#244=CLOSED_SHELL('',(#231,#232,#233,#234,#235,#236,#237,#238,#239,#240,
#241,#242,#243));
#245=DERIVED_UNIT_ELEMENT(#247,1.);
#246=DERIVED_UNIT_ELEMENT(#442,3.);
#247=(
MASS_UNIT()
NAMED_UNIT(*)
SI_UNIT($,.GRAM.)
);
#248=DERIVED_UNIT((#245,#246));
#249=MEASURE_REPRESENTATION_ITEM('density measure',
POSITIVE_RATIO_MEASURE(0.93),#248);
#250=PROPERTY_DEFINITION_REPRESENTATION(#255,#252);
#251=PROPERTY_DEFINITION_REPRESENTATION(#256,#253);
#252=REPRESENTATION('material name',(#254),#437);
#253=REPRESENTATION('density',(#249),#437);
#254=DESCRIPTIVE_REPRESENTATION_ITEM('FKM, BROWN','FKM, BROWN');
#255=PROPERTY_DEFINITION('material property','material name',#450);
#256=PROPERTY_DEFINITION('material property','density of part',#450);
#257=DATE_TIME_ROLE('creation_date');
#258=APPLIED_DATE_AND_TIME_ASSIGNMENT(#259,#257,(#450));
#259=DATE_AND_TIME(#260,#261);
#260=CALENDAR_DATE(1999,8,4);
#261=LOCAL_TIME(14,21,26.,#262);
#262=COORDINATED_UNIVERSAL_TIME_OFFSET(0,0,.BEHIND.);
#263=AXIS2_PLACEMENT_3D('placement',#366,#291,#292);
#264=AXIS2_PLACEMENT_3D('',#367,#293,#294);
#265=AXIS2_PLACEMENT_3D('',#370,#295,#296);
#266=AXIS2_PLACEMENT_3D('',#374,#298,#299);
#267=AXIS2_PLACEMENT_3D('',#376,#301,#302);
#268=AXIS2_PLACEMENT_3D('',#382,#306,#307);
#269=AXIS2_PLACEMENT_3D('',#386,#309,#310);
#270=AXIS2_PLACEMENT_3D('',#390,#312,#313);
#271=AXIS2_PLACEMENT_3D('',#392,#314,#315);
#272=AXIS2_PLACEMENT_3D('',#394,#316,#317);
#273=AXIS2_PLACEMENT_3D('',#397,#319,#320);
#274=AXIS2_PLACEMENT_3D('',#399,#321,#322);
#275=AXIS2_PLACEMENT_3D('',#400,#323,#324);
#276=AXIS2_PLACEMENT_3D('',#402,#325,#326);
#277=AXIS2_PLACEMENT_3D('',#404,#328,#329);
#278=AXIS2_PLACEMENT_3D('',#408,#332,#333);
#279=AXIS2_PLACEMENT_3D('',#410,#334,#335);
#280=AXIS2_PLACEMENT_3D('',#412,#337,#338);
#281=AXIS2_PLACEMENT_3D('',#415,#340,#341);
#282=AXIS2_PLACEMENT_3D('',#416,#342,#343);
#283=AXIS2_PLACEMENT_3D('',#418,#344,#345);
#284=AXIS2_PLACEMENT_3D('',#420,#347,#348);
#285=AXIS2_PLACEMENT_3D('',#424,#351,#352);
#286=AXIS2_PLACEMENT_3D('',#426,#353,#354);
#287=AXIS2_PLACEMENT_3D('',#428,#356,#357);
#288=AXIS2_PLACEMENT_3D('',#431,#359,#360);
#289=AXIS2_PLACEMENT_3D('',#432,#361,#362);
#290=AXIS2_PLACEMENT_3D('',#434,#364,#365);
#291=DIRECTION('axis',(0.,0.,1.));
#292=DIRECTION('refdir',(1.,0.,0.));
#293=DIRECTION('center_axis',(0.,0.,1.));
#294=DIRECTION('ref_axis',(0.,1.,0.));
#295=DIRECTION('center_axis',(0.,0.,-1.));
#296=DIRECTION('ref_axis',(0.,1.,0.));
#297=DIRECTION('',(0.,0.,-1.));
#298=DIRECTION('center_axis',(0.,0.,1.));
#299=DIRECTION('ref_axis',(0.,1.,0.));
#300=DIRECTION('',(0.,0.,1.));
#301=DIRECTION('center_axis',(-0.573576436351046,0.819152044288992,0.));
#302=DIRECTION('ref_axis',(0.,0.,1.));
#303=DIRECTION('',(-0.819152044288992,-0.573576436351046,0.));
#304=DIRECTION('',(0.,0.,-1.));
#305=DIRECTION('',(0.819152044288992,0.573576436351046,0.));
#306=DIRECTION('center_axis',(0.,0.,1.));
#307=DIRECTION('ref_axis',(1.,0.,0.));
#308=DIRECTION('',(-0.819152044288992,0.573576436351046,0.));
#309=DIRECTION('center_axis',(0.,0.,1.));
#310=DIRECTION('ref_axis',(0.972369920397677,0.233445363855906,0.));
#311=DIRECTION('',(0.46947156278589,0.882947592858927,0.));
#312=DIRECTION('center_axis',(0.,0.,1.));
#313=DIRECTION('ref_axis',(0.471589711697183,-0.881818089983058,0.));
#314=DIRECTION('center_axis',(0.,0.,-1.));
#315=DIRECTION('ref_axis',(-0.195012740153361,-0.980800709205432,0.));
#316=DIRECTION('center_axis',(0.,0.,1.));
#317=DIRECTION('ref_axis',(-0.471589711697183,-0.881818089983058,0.));
#318=DIRECTION('',(0.46947156278589,-0.882947592858927,0.));
#319=DIRECTION('center_axis',(0.,0.,1.));
#320=DIRECTION('ref_axis',(-0.972369920397677,0.233445363855905,0.));
#321=DIRECTION('center_axis',(0.,0.,1.));
#322=DIRECTION('ref_axis',(-1.,0.,0.));
#323=DIRECTION('center_axis',(0.,0.,1.));
#324=DIRECTION('ref_axis',(-0.972369920397677,0.233445363855905,0.));
#325=DIRECTION('center_axis',(0.,0.,-1.));
#326=DIRECTION('ref_axis',(-0.972369920397677,0.233445363855905,0.));
#327=DIRECTION('',(0.,0.,1.));
#328=DIRECTION('center_axis',(-0.882947592858927,-0.469471562785891,0.));
#329=DIRECTION('ref_axis',(0.,0.,1.));
#330=DIRECTION('',(0.,0.,-1.));
#331=DIRECTION('',(-0.46947156278589,0.882947592858927,0.));
#332=DIRECTION('center_axis',(0.,0.,1.));
#333=DIRECTION('ref_axis',(-0.471589711697183,-0.881818089983058,0.));
#334=DIRECTION('center_axis',(0.,0.,-1.));
#335=DIRECTION('ref_axis',(-0.471589711697183,-0.881818089983058,0.));
#336=DIRECTION('',(0.,0.,1.));
#337=DIRECTION('center_axis',(0.,0.,1.));
#338=DIRECTION('ref_axis',(-0.195012740153361,-0.980800709205432,0.));
#339=DIRECTION('',(0.,0.,-1.));
#340=DIRECTION('center_axis',(0.,0.,1.));
#341=DIRECTION('ref_axis',(-0.195012740153361,-0.980800709205432,0.));
#342=DIRECTION('center_axis',(0.,0.,1.));
#343=DIRECTION('ref_axis',(0.471589711697183,-0.881818089983058,0.));
#344=DIRECTION('center_axis',(0.,0.,-1.));
#345=DIRECTION('ref_axis',(0.471589711697183,-0.881818089983058,0.));
#346=DIRECTION('',(0.,0.,1.));
#347=DIRECTION('center_axis',(0.882947592858927,-0.469471562785891,0.));
#348=DIRECTION('ref_axis',(0.,0.,-1.));
#349=DIRECTION('',(0.,0.,-1.));
#350=DIRECTION('',(-0.46947156278589,-0.882947592858927,0.));
#351=DIRECTION('center_axis',(0.,0.,1.));
#352=DIRECTION('ref_axis',(0.972369920397677,0.233445363855906,0.));
#353=DIRECTION('center_axis',(0.,0.,-1.));
#354=DIRECTION('ref_axis',(0.972369920397677,0.233445363855906,0.));
#355=DIRECTION('',(0.,0.,1.));
#356=DIRECTION('center_axis',(0.,0.,1.));
#357=DIRECTION('ref_axis',(-1.,0.,0.));
#358=DIRECTION('',(0.,0.,1.));
#359=DIRECTION('center_axis',(0.,0.,-1.));
#360=DIRECTION('ref_axis',(-1.,0.,0.));
#361=DIRECTION('center_axis',(0.573576436351046,0.819152044288992,0.));
#362=DIRECTION('ref_axis',(0.,0.,-1.));
#363=DIRECTION('',(0.819152044288992,-0.573576436351046,0.));
#364=DIRECTION('center_axis',(0.,0.,1.));
#365=DIRECTION('ref_axis',(1.,0.,0.));
#366=CARTESIAN_POINT('',(0.,0.,0.));
#367=CARTESIAN_POINT('Origin',(4.37095678986282E-17,0.00636623029358446,
0.));
#368=CARTESIAN_POINT('',(-0.321202804356586,0.46509137509542,0.125));
#369=CARTESIAN_POINT('',(0.321202804356586,0.46509137509542,0.125));
#370=CARTESIAN_POINT('Origin',(4.37095678986282E-17,0.00636623029358446,
0.125));
#371=CARTESIAN_POINT('',(0.321202804356586,0.46509137509542,0.));
#372=CARTESIAN_POINT('',(0.321202804356586,0.46509137509542,0.));
#373=CARTESIAN_POINT('',(-0.321202804356586,0.46509137509542,0.));
#374=CARTESIAN_POINT('Origin',(4.37095678986282E-17,0.00636623029358446,
0.));
#375=CARTESIAN_POINT('',(-0.321202804356586,0.46509137509542,0.));
#376=CARTESIAN_POINT('Origin',(-0.856279159775118,0.0904268775135855,0.));
#377=CARTESIAN_POINT('',(-0.675098032501338,0.217291268612019,0.));
#378=CARTESIAN_POINT('',(0.,0.69,0.));
#379=CARTESIAN_POINT('',(-0.675098032501338,0.217291268612019,0.125));
#380=CARTESIAN_POINT('',(-0.675098032501338,0.217291268612019,0.));
#381=CARTESIAN_POINT('',(0.,0.69,0.125));
#382=CARTESIAN_POINT('Origin',(2.18547839493141E-17,-0.133061539678204,
0.));
#383=CARTESIAN_POINT('',(0.675098032501338,0.217291268612019,0.));
#384=CARTESIAN_POINT('',(0.856279159775118,0.0904268775135855,0.));
#385=CARTESIAN_POINT('',(0.752440821628308,-0.104864633156701,0.));
#386=CARTESIAN_POINT('Origin',(0.531703923413577,0.0125032575397713,0.));
#387=CARTESIAN_POINT('',(0.416252003327964,-0.737143841087669,0.));
#388=CARTESIAN_POINT('',(0.333471785662247,-0.892830787258712,0.));
#389=CARTESIAN_POINT('',(0.17057695395083,-0.86852901794334,0.));
#390=CARTESIAN_POINT('Origin',(0.195515105113232,-0.619775950391196,0.));
#391=CARTESIAN_POINT('',(-0.17057695395083,-0.86852901794334,0.));
#392=CARTESIAN_POINT('Origin',(0.,-2.57,0.));
#393=CARTESIAN_POINT('',(-0.416252003327964,-0.737143841087669,0.));
#394=CARTESIAN_POINT('Origin',(-0.195515105113232,-0.619775950391196,0.));
#395=CARTESIAN_POINT('',(-0.752440821628308,-0.104864633156701,0.));
#396=CARTESIAN_POINT('',(-0.856279159775118,0.0904268775135855,0.));
#397=CARTESIAN_POINT('Origin',(-0.531703923413576,0.0125032575397713,0.));
#398=CARTESIAN_POINT('',(0.205,2.51052593825207E-17,0.));
#399=CARTESIAN_POINT('Origin',(0.,0.,0.));
#400=CARTESIAN_POINT('Origin',(-0.531703923413576,0.0125032575397713,0.));
#401=CARTESIAN_POINT('',(-0.752440821628308,-0.104864633156701,0.125));
#402=CARTESIAN_POINT('Origin',(-0.531703923413576,0.0125032575397713,0.125));
#403=CARTESIAN_POINT('',(-0.752440821628308,-0.104864633156701,0.));
#404=CARTESIAN_POINT('Origin',(-0.333471785662247,-0.892830787258712,0.));
#405=CARTESIAN_POINT('',(-0.416252003327964,-0.737143841087669,0.125));
#406=CARTESIAN_POINT('',(-0.416252003327964,-0.737143841087669,0.));
#407=CARTESIAN_POINT('',(-0.856279159775118,0.0904268775135855,0.125));
#408=CARTESIAN_POINT('Origin',(-0.195515105113232,-0.619775950391196,0.));
#409=CARTESIAN_POINT('',(-0.17057695395083,-0.86852901794334,0.125));
#410=CARTESIAN_POINT('Origin',(-0.195515105113232,-0.619775950391196,0.125));
#411=CARTESIAN_POINT('',(-0.17057695395083,-0.868529017943339,0.));
#412=CARTESIAN_POINT('Origin',(0.,-2.57,0.));
#413=CARTESIAN_POINT('',(0.17057695395083,-0.86852901794334,0.125));
#414=CARTESIAN_POINT('',(0.17057695395083,-0.868529017943339,0.));
#415=CARTESIAN_POINT('Origin',(0.,-2.57,0.125));
#416=CARTESIAN_POINT('Origin',(0.195515105113232,-0.619775950391196,0.));
#417=CARTESIAN_POINT('',(0.416252003327964,-0.737143841087669,0.125));
#418=CARTESIAN_POINT('Origin',(0.195515105113232,-0.619775950391196,0.125));
#419=CARTESIAN_POINT('',(0.416252003327964,-0.737143841087669,0.));
#420=CARTESIAN_POINT('Origin',(0.856279159775118,0.0904268775135855,0.));
#421=CARTESIAN_POINT('',(0.752440821628308,-0.104864633156701,0.125));
#422=CARTESIAN_POINT('',(0.752440821628308,-0.104864633156701,0.));
#423=CARTESIAN_POINT('',(0.333471785662247,-0.892830787258712,0.125));
#424=CARTESIAN_POINT('Origin',(0.531703923413577,0.0125032575397713,0.));
#425=CARTESIAN_POINT('',(0.675098032501338,0.217291268612019,0.125));
#426=CARTESIAN_POINT('Origin',(0.531703923413577,0.0125032575397713,0.125));
#427=CARTESIAN_POINT('',(0.675098032501338,0.217291268612019,0.));
#428=CARTESIAN_POINT('Origin',(0.,0.,0.));
#429=CARTESIAN_POINT('',(0.205,2.51052593825207E-17,0.125));
#430=CARTESIAN_POINT('',(0.205,2.51052593825207E-17,0.));
#431=CARTESIAN_POINT('Origin',(0.,0.,0.125));
#432=CARTESIAN_POINT('Origin',(0.,0.69,0.));
#433=CARTESIAN_POINT('',(0.856279159775118,0.0904268775135855,0.125));
#434=CARTESIAN_POINT('Origin',(3.27821759239712E-17,-0.133061539678204,
0.125));
#435=UNCERTAINTY_MEASURE_WITH_UNIT(LENGTH_MEASURE(0.000393700787401575),
#440,'DISTANCE_ACCURACY_VALUE',
'Maximum model space distance between geometric entities at asserted c
onnectivities');
#436=UNCERTAINTY_MEASURE_WITH_UNIT(LENGTH_MEASURE(0.000393700787401575),
#440,'DISTANCE_ACCURACY_VALUE',
'Maximum model space distance between geometric entities at asserted c
onnectivities');
#437=(
GEOMETRIC_REPRESENTATION_CONTEXT(3)
GLOBAL_UNCERTAINTY_ASSIGNED_CONTEXT((#435))
GLOBAL_UNIT_ASSIGNED_CONTEXT((#440,#444,#445))
REPRESENTATION_CONTEXT('','3D')
);
#438=(
GEOMETRIC_REPRESENTATION_CONTEXT(3)
GLOBAL_UNCERTAINTY_ASSIGNED_CONTEXT((#436))
GLOBAL_UNIT_ASSIGNED_CONTEXT((#440,#444,#445))
REPRESENTATION_CONTEXT('','3D')
);
#439=DIMENSIONAL_EXPONENTS(1.,0.,0.,0.,0.,0.,0.);
#440=(
CONVERSION_BASED_UNIT('inch',#443)
LENGTH_UNIT()
NAMED_UNIT(#439)
);
#441=(
LENGTH_UNIT()
NAMED_UNIT(*)
SI_UNIT(.MILLI.,.METRE.)
);
#442=(
LENGTH_UNIT()
NAMED_UNIT(*)
SI_UNIT(.CENTI.,.METRE.)
);
#443=LENGTH_MEASURE_WITH_UNIT(LENGTH_MEASURE(25.4),#441);
#444=(
NAMED_UNIT(*)
PLANE_ANGLE_UNIT()
SI_UNIT($,.RADIAN.)
);
#445=(
NAMED_UNIT(*)
SI_UNIT($,.STERADIAN.)
SOLID_ANGLE_UNIT()
);
#446=SHAPE_DEFINITION_REPRESENTATION(#447,#448);
#447=PRODUCT_DEFINITION_SHAPE('',$,#450);
#448=SHAPE_REPRESENTATION('',(#263),#437);
#449=PRODUCT_DEFINITION_CONTEXT('part definition',#454,'design');
#450=PRODUCT_DEFINITION('BF300GFV','BF300GFV',#451,#449);
#451=PRODUCT_DEFINITION_FORMATION('00',$,#456);
#452=PRODUCT_RELATED_PRODUCT_CATEGORY('BF300GFV','BF300GFV',(#456));
#453=APPLICATION_PROTOCOL_DEFINITION('international standard',
'automotive_design',2009,#454);
#454=APPLICATION_CONTEXT(
'Core Data for Automotive Mechanical Design Process');
#455=PRODUCT_CONTEXT('part definition',#454,'mechanical');
#456=PRODUCT('BF300GFV','BF300GFV','3" BOLTED FLNG FOOT GSKT-FKM',(#455));
#457=PRESENTATION_STYLE_ASSIGNMENT((#458));
#458=SURFACE_STYLE_USAGE(.BOTH.,#461);
#459=SURFACE_STYLE_RENDERING_WITH_PROPERTIES($,#465,(#460));
#460=SURFACE_STYLE_TRANSPARENT(0.);
#461=SURFACE_SIDE_STYLE('',(#462,#459));
#462=SURFACE_STYLE_FILL_AREA(#463);
#463=FILL_AREA_STYLE('',(#464));
#464=FILL_AREA_STYLE_COLOUR('',#465);
#465=COLOUR_RGB('',0.474509803921569,0.23921568627451,0.);
ENDSEC;
END-ISO-10303-21;
