ISO-10303-21;
HEADER;
/* Generated by software containing ST-Developer
 * from STEP Tools, Inc. (www.steptools.com) 
 */

FILE_DESCRIPTION(
/* description */ ('EV U-PIN'),
/* implementation_level */ '2;1');

FILE_NAME(
/* name */ 'E:\\1-3D\\STEP\\EVP20001.stp',
/* time_stamp */ '2018-09-05T08:00:30-04:00',
/* author */ ('MJC'),
/* organization */ (''),
/* preprocessor_version */ 'ST-DEVELOPER v17',
/* originating_system */ 'Autodesk Inventor 2018',
/* authorisation */ '');

FILE_SCHEMA (('AUTOMOTIVE_DESIGN { 1 0 10303 214 3 1 1 }'));
ENDSEC;

DATA;
#10=MECHANICAL_DESIGN_GEOMETRIC_PRESENTATION_REPRESENTATION('',(#13),#244);
#11=SHAPE_REPRESENTATION_RELATIONSHIP('SRR','None',#254,#12);
#12=ADVANCED_BREP_SHAPE_REPRESENTATION('',(#14),#243);
#13=STYLED_ITEM('',(#263),#14);
#14=MANIFOLD_SOLID_BREP('Solid2',#124);
#15=TOROIDAL_SURFACE('',#156,0.125,0.0625);
#16=TOROIDAL_SURFACE('',#161,0.125,0.0625);
#17=PLANE('',#149);
#18=PLANE('',#155);
#19=CYLINDRICAL_SURFACE('',#147,0.0625);
#20=CYLINDRICAL_SURFACE('',#153,0.0625);
#21=CYLINDRICAL_SURFACE('',#159,0.0625);
#22=FACE_OUTER_BOUND('',#31,.T.);
#23=FACE_OUTER_BOUND('',#32,.T.);
#24=FACE_OUTER_BOUND('',#33,.T.);
#25=FACE_OUTER_BOUND('',#34,.T.);
#26=FACE_OUTER_BOUND('',#35,.T.);
#27=FACE_OUTER_BOUND('',#36,.T.);
#28=FACE_OUTER_BOUND('',#37,.T.);
#29=FACE_OUTER_BOUND('',#38,.T.);
#30=FACE_OUTER_BOUND('',#39,.T.);
#31=EDGE_LOOP('',(#83,#84,#85,#86));
#32=EDGE_LOOP('',(#87,#88,#89,#90));
#33=EDGE_LOOP('',(#91));
#34=EDGE_LOOP('',(#92,#93,#94,#95));
#35=EDGE_LOOP('',(#96,#97,#98,#99));
#36=EDGE_LOOP('',(#100));
#37=EDGE_LOOP('',(#101,#102,#103,#104));
#38=EDGE_LOOP('',(#105,#106,#107,#108));
#39=EDGE_LOOP('',(#109,#110,#111,#112));
#40=LINE('',#213,#45);
#41=LINE('',#218,#46);
#42=LINE('',#224,#47);
#43=LINE('',#228,#48);
#44=LINE('',#237,#49);
#45=VECTOR('',#169,0.0475);
#46=VECTOR('',#176,0.0625);
#47=VECTOR('',#183,0.0475);
#48=VECTOR('',#188,0.0625);
#49=VECTOR('',#201,0.0625);
#50=CIRCLE('',#145,0.0625);
#51=CIRCLE('',#146,0.0325);
#52=CIRCLE('',#148,0.0625);
#53=CIRCLE('',#151,0.0325);
#54=CIRCLE('',#152,0.0625);
#55=CIRCLE('',#154,0.0625);
#56=CIRCLE('',#157,0.0624999999999998);
#57=CIRCLE('',#158,0.0625);
#58=CIRCLE('',#160,0.0625);
#59=CIRCLE('',#162,0.0625000000000002);
#60=VERTEX_POINT('',#210);
#61=VERTEX_POINT('',#212);
#62=VERTEX_POINT('',#216);
#63=VERTEX_POINT('',#221);
#64=VERTEX_POINT('',#223);
#65=VERTEX_POINT('',#227);
#66=VERTEX_POINT('',#232);
#67=VERTEX_POINT('',#236);
#68=EDGE_CURVE('',#60,#60,#50,.T.);
#69=EDGE_CURVE('',#60,#61,#40,.T.);
#70=EDGE_CURVE('',#61,#61,#51,.T.);
#71=EDGE_CURVE('',#62,#62,#52,.T.);
#72=EDGE_CURVE('',#62,#60,#41,.T.);
#73=EDGE_CURVE('',#63,#63,#53,.T.);
#74=EDGE_CURVE('',#63,#64,#42,.T.);
#75=EDGE_CURVE('',#64,#64,#54,.T.);
#76=EDGE_CURVE('',#64,#65,#43,.T.);
#77=EDGE_CURVE('',#65,#65,#55,.T.);
#78=EDGE_CURVE('',#65,#66,#56,.T.);
#79=EDGE_CURVE('',#66,#66,#57,.T.);
#80=EDGE_CURVE('',#66,#67,#44,.T.);
#81=EDGE_CURVE('',#67,#67,#58,.T.);
#82=EDGE_CURVE('',#67,#62,#59,.T.);
#83=ORIENTED_EDGE('',*,*,#68,.T.);
#84=ORIENTED_EDGE('',*,*,#69,.T.);
#85=ORIENTED_EDGE('',*,*,#70,.T.);
#86=ORIENTED_EDGE('',*,*,#69,.F.);
#87=ORIENTED_EDGE('',*,*,#71,.F.);
#88=ORIENTED_EDGE('',*,*,#72,.T.);
#89=ORIENTED_EDGE('',*,*,#68,.F.);
#90=ORIENTED_EDGE('',*,*,#72,.F.);
#91=ORIENTED_EDGE('',*,*,#70,.F.);
#92=ORIENTED_EDGE('',*,*,#73,.T.);
#93=ORIENTED_EDGE('',*,*,#74,.T.);
#94=ORIENTED_EDGE('',*,*,#75,.T.);
#95=ORIENTED_EDGE('',*,*,#74,.F.);
#96=ORIENTED_EDGE('',*,*,#75,.F.);
#97=ORIENTED_EDGE('',*,*,#76,.T.);
#98=ORIENTED_EDGE('',*,*,#77,.T.);
#99=ORIENTED_EDGE('',*,*,#76,.F.);
#100=ORIENTED_EDGE('',*,*,#73,.F.);
#101=ORIENTED_EDGE('',*,*,#77,.F.);
#102=ORIENTED_EDGE('',*,*,#78,.T.);
#103=ORIENTED_EDGE('',*,*,#79,.T.);
#104=ORIENTED_EDGE('',*,*,#78,.F.);
#105=ORIENTED_EDGE('',*,*,#79,.F.);
#106=ORIENTED_EDGE('',*,*,#80,.T.);
#107=ORIENTED_EDGE('',*,*,#81,.T.);
#108=ORIENTED_EDGE('',*,*,#80,.F.);
#109=ORIENTED_EDGE('',*,*,#81,.F.);
#110=ORIENTED_EDGE('',*,*,#82,.T.);
#111=ORIENTED_EDGE('',*,*,#71,.T.);
#112=ORIENTED_EDGE('',*,*,#82,.F.);
#113=CONICAL_SURFACE('',#144,0.0475,0.785398163397448);
#114=CONICAL_SURFACE('',#150,0.0475,0.785398163397448);
#115=ADVANCED_FACE('',(#22),#113,.T.);
#116=ADVANCED_FACE('',(#23),#19,.T.);
#117=ADVANCED_FACE('',(#24),#17,.T.);
#118=ADVANCED_FACE('',(#25),#114,.T.);
#119=ADVANCED_FACE('',(#26),#20,.T.);
#120=ADVANCED_FACE('',(#27),#18,.F.);
#121=ADVANCED_FACE('',(#28),#15,.T.);
#122=ADVANCED_FACE('',(#29),#21,.T.);
#123=ADVANCED_FACE('',(#30),#16,.T.);
#124=CLOSED_SHELL('',(#115,#116,#117,#118,#119,#120,#121,#122,#123));
#125=DERIVED_UNIT_ELEMENT(#127,1.);
#126=DERIVED_UNIT_ELEMENT(#248,3.);
#127=(
MASS_UNIT()
NAMED_UNIT(*)
SI_UNIT($,.GRAM.)
);
#128=DERIVED_UNIT((#125,#126));
#129=MEASURE_REPRESENTATION_ITEM('density measure',
POSITIVE_RATIO_MEASURE(8.),#128);
#130=PROPERTY_DEFINITION_REPRESENTATION(#135,#132);
#131=PROPERTY_DEFINITION_REPRESENTATION(#136,#133);
#132=REPRESENTATION('material name',(#134),#243);
#133=REPRESENTATION('density',(#129),#243);
#134=DESCRIPTIVE_REPRESENTATION_ITEM('Stainless Steel',
'Stainless Steel');
#135=PROPERTY_DEFINITION('material property','material name',#256);
#136=PROPERTY_DEFINITION('material property','density of part',#256);
#137=DATE_TIME_ROLE('creation_date');
#138=APPLIED_DATE_AND_TIME_ASSIGNMENT(#139,#137,(#256));
#139=DATE_AND_TIME(#140,#141);
#140=CALENDAR_DATE(2017,8,11);
#141=LOCAL_TIME(15,10,42.,#142);
#142=COORDINATED_UNIVERSAL_TIME_OFFSET(0,0,.BEHIND.);
#143=AXIS2_PLACEMENT_3D('placement',#208,#163,#164);
#144=AXIS2_PLACEMENT_3D('',#209,#165,#166);
#145=AXIS2_PLACEMENT_3D('',#211,#167,#168);
#146=AXIS2_PLACEMENT_3D('',#214,#170,#171);
#147=AXIS2_PLACEMENT_3D('',#215,#172,#173);
#148=AXIS2_PLACEMENT_3D('',#217,#174,#175);
#149=AXIS2_PLACEMENT_3D('',#219,#177,#178);
#150=AXIS2_PLACEMENT_3D('',#220,#179,#180);
#151=AXIS2_PLACEMENT_3D('',#222,#181,#182);
#152=AXIS2_PLACEMENT_3D('',#225,#184,#185);
#153=AXIS2_PLACEMENT_3D('',#226,#186,#187);
#154=AXIS2_PLACEMENT_3D('',#229,#189,#190);
#155=AXIS2_PLACEMENT_3D('',#230,#191,#192);
#156=AXIS2_PLACEMENT_3D('',#231,#193,#194);
#157=AXIS2_PLACEMENT_3D('',#233,#195,#196);
#158=AXIS2_PLACEMENT_3D('',#234,#197,#198);
#159=AXIS2_PLACEMENT_3D('',#235,#199,#200);
#160=AXIS2_PLACEMENT_3D('',#238,#202,#203);
#161=AXIS2_PLACEMENT_3D('',#239,#204,#205);
#162=AXIS2_PLACEMENT_3D('',#240,#206,#207);
#163=DIRECTION('axis',(0.,0.,1.));
#164=DIRECTION('refdir',(1.,0.,0.));
#165=DIRECTION('center_axis',(-1.,0.,0.));
#166=DIRECTION('ref_axis',(-1.7692765617534E-31,-1.,0.));
#167=DIRECTION('center_axis',(1.,0.,0.));
#168=DIRECTION('ref_axis',(-2.68930037386517E-31,-1.,0.));
#169=DIRECTION('',(0.707106781186547,-0.707106781186547,8.65956056235493E-17));
#170=DIRECTION('center_axis',(-1.,0.,0.));
#171=DIRECTION('ref_axis',(0.,-1.,0.));
#172=DIRECTION('center_axis',(-1.,2.68930037386517E-31,0.));
#173=DIRECTION('ref_axis',(-2.68930037386517E-31,-1.,0.));
#174=DIRECTION('center_axis',(-1.,0.,0.));
#175=DIRECTION('ref_axis',(0.,-1.,0.));
#176=DIRECTION('',(1.,-2.68930037386517E-31,0.));
#177=DIRECTION('center_axis',(1.,0.,0.));
#178=DIRECTION('ref_axis',(0.,0.,-1.));
#179=DIRECTION('center_axis',(-1.,0.,0.));
#180=DIRECTION('ref_axis',(-7.25691925312713E-17,1.,0.));
#181=DIRECTION('center_axis',(-1.,-1.22464679914735E-16,0.));
#182=DIRECTION('ref_axis',(-1.22464679914735E-16,1.,0.));
#183=DIRECTION('',(-0.707106781186547,-0.707106781186548,-8.65956056235493E-17));
#184=DIRECTION('center_axis',(1.,1.22464679914735E-16,0.));
#185=DIRECTION('ref_axis',(-4.66235390918701E-17,1.,0.));
#186=DIRECTION('center_axis',(1.,4.66235390918701E-17,0.));
#187=DIRECTION('ref_axis',(-4.66235390918701E-17,1.,0.));
#188=DIRECTION('',(-1.,-4.66235390918701E-17,0.));
#189=DIRECTION('center_axis',(1.,1.22464679914735E-16,0.));
#190=DIRECTION('ref_axis',(-1.22464679914735E-16,1.,0.));
#191=DIRECTION('center_axis',(-1.,-1.22464679914735E-16,0.));
#192=DIRECTION('ref_axis',(0.,0.,-1.));
#193=DIRECTION('center_axis',(0.,0.,-1.));
#194=DIRECTION('ref_axis',(-1.,0.,0.));
#195=DIRECTION('center_axis',(0.,0.,1.));
#196=DIRECTION('ref_axis',(-1.,0.,0.));
#197=DIRECTION('center_axis',(-6.12323399573677E-17,1.,0.));
#198=DIRECTION('ref_axis',(-1.,-6.12323399573677E-17,0.));
#199=DIRECTION('center_axis',(0.,1.,0.));
#200=DIRECTION('ref_axis',(-1.,0.,0.));
#201=DIRECTION('',(0.,-1.,0.));
#202=DIRECTION('center_axis',(-6.12323399573677E-17,1.,0.));
#203=DIRECTION('ref_axis',(-1.,-6.12323399573677E-17,0.));
#204=DIRECTION('center_axis',(0.,0.,-1.));
#205=DIRECTION('ref_axis',(-1.,0.,0.));
#206=DIRECTION('center_axis',(0.,0.,1.));
#207=DIRECTION('ref_axis',(-1.,0.,0.));
#208=CARTESIAN_POINT('',(0.,0.,0.));
#209=CARTESIAN_POINT('Origin',(-0.015,8.06790112159551E-33,0.));
#210=CARTESIAN_POINT('',(-0.03,0.0625,7.65404249467096E-18));
#211=CARTESIAN_POINT('Origin',(-0.03,8.06790112159551E-33,0.));
#212=CARTESIAN_POINT('',(0.,0.0325,-3.9801020972289E-18));
#213=CARTESIAN_POINT('',(-0.015,0.0475,-5.81707229594993E-18));
#214=CARTESIAN_POINT('Origin',(0.,8.06790112159551E-33,0.));
#215=CARTESIAN_POINT('Origin',(0.,0.,0.));
#216=CARTESIAN_POINT('',(-1.875,0.0625,7.65404249467096E-18));
#217=CARTESIAN_POINT('Origin',(-1.875,5.04243820099719E-31,0.));
#218=CARTESIAN_POINT('',(1.68081273366573E-32,0.0625,-7.65404249467096E-18));
#219=CARTESIAN_POINT('Origin',(0.,-6.37400064078009E-18,1.43404094155604E-18));
#220=CARTESIAN_POINT('Origin',(-0.015,0.75,0.));
#221=CARTESIAN_POINT('',(3.98010209722889E-18,0.7175,3.98010209722889E-18));
#222=CARTESIAN_POINT('Origin',(0.,0.75,0.));
#223=CARTESIAN_POINT('',(-0.03,0.6875,-7.65404249467096E-18));
#224=CARTESIAN_POINT('',(-0.015,0.7025,-5.81707229594993E-18));
#225=CARTESIAN_POINT('Origin',(-0.03,0.75,0.));
#226=CARTESIAN_POINT('Origin',(-1.875,0.75,0.));
#227=CARTESIAN_POINT('',(-1.875,0.6875,7.65404249467096E-18));
#228=CARTESIAN_POINT('',(-1.875,0.6875,-7.65404249467096E-18));
#229=CARTESIAN_POINT('Origin',(-1.875,0.75,0.));
#230=CARTESIAN_POINT('Origin',(0.,0.75,1.43404094155604E-18));
#231=CARTESIAN_POINT('Origin',(-1.875,0.625,0.));
#232=CARTESIAN_POINT('',(-1.9375,0.625,7.65404249467096E-18));
#233=CARTESIAN_POINT('Origin',(-1.875,0.625,7.65404249467096E-18));
#234=CARTESIAN_POINT('Origin',(-2.,0.625,0.));
#235=CARTESIAN_POINT('Origin',(-2.,0.125,0.));
#236=CARTESIAN_POINT('',(-1.9375,0.125,7.65404249467096E-18));
#237=CARTESIAN_POINT('',(-1.9375,0.125,-7.65404249467096E-18));
#238=CARTESIAN_POINT('Origin',(-2.,0.125,0.));
#239=CARTESIAN_POINT('Origin',(-1.875,0.125,0.));
#240=CARTESIAN_POINT('Origin',(-1.875,0.125,7.65404249467096E-18));
#241=UNCERTAINTY_MEASURE_WITH_UNIT(LENGTH_MEASURE(0.000393700787401575),
#246,'DISTANCE_ACCURACY_VALUE',
'Maximum model space distance between geometric entities at asserted c
onnectivities');
#242=UNCERTAINTY_MEASURE_WITH_UNIT(LENGTH_MEASURE(0.000393700787401575),
#246,'DISTANCE_ACCURACY_VALUE',
'Maximum model space distance between geometric entities at asserted c
onnectivities');
#243=(
GEOMETRIC_REPRESENTATION_CONTEXT(3)
GLOBAL_UNCERTAINTY_ASSIGNED_CONTEXT((#241))
GLOBAL_UNIT_ASSIGNED_CONTEXT((#246,#251,#250))
REPRESENTATION_CONTEXT('','3D')
);
#244=(
GEOMETRIC_REPRESENTATION_CONTEXT(3)
GLOBAL_UNCERTAINTY_ASSIGNED_CONTEXT((#242))
GLOBAL_UNIT_ASSIGNED_CONTEXT((#246,#251,#250))
REPRESENTATION_CONTEXT('','3D')
);
#245=DIMENSIONAL_EXPONENTS(1.,0.,0.,0.,0.,0.,0.);
#246=(
CONVERSION_BASED_UNIT('inch',#249)
LENGTH_UNIT()
NAMED_UNIT(#245)
);
#247=(
LENGTH_UNIT()
NAMED_UNIT(*)
SI_UNIT(.MILLI.,.METRE.)
);
#248=(
LENGTH_UNIT()
NAMED_UNIT(*)
SI_UNIT(.CENTI.,.METRE.)
);
#249=LENGTH_MEASURE_WITH_UNIT(LENGTH_MEASURE(25.4),#247);
#250=(
NAMED_UNIT(*)
SI_UNIT($,.STERADIAN.)
SOLID_ANGLE_UNIT()
);
#251=(
NAMED_UNIT(*)
PLANE_ANGLE_UNIT()
SI_UNIT($,.RADIAN.)
);
#252=SHAPE_DEFINITION_REPRESENTATION(#253,#254);
#253=PRODUCT_DEFINITION_SHAPE('',$,#256);
#254=SHAPE_REPRESENTATION('',(#143),#243);
#255=PRODUCT_DEFINITION_CONTEXT('part definition',#260,'design');
#256=PRODUCT_DEFINITION('EVP20001','EVP20001',#257,#255);
#257=PRODUCT_DEFINITION_FORMATION('000',$,#262);
#258=PRODUCT_RELATED_PRODUCT_CATEGORY('EVP20001','EVP20001',(#262));
#259=APPLICATION_PROTOCOL_DEFINITION('international standard',
'automotive_design',2009,#260);
#260=APPLICATION_CONTEXT(
'Core Data for Automotive Mechanical Design Process');
#261=PRODUCT_CONTEXT('part definition',#260,'mechanical');
#262=PRODUCT('EVP20001','EVP20001','EV U-PIN',(#261));
#263=PRESENTATION_STYLE_ASSIGNMENT((#264));
#264=SURFACE_STYLE_USAGE(.BOTH.,#265);
#265=SURFACE_SIDE_STYLE('',(#266));
#266=SURFACE_STYLE_FILL_AREA(#267);
#267=FILL_AREA_STYLE('',(#268));
#268=FILL_AREA_STYLE_COLOUR('',#269);
#269=COLOUR_RGB('',0.745098039215686,0.737254901960784,0.729411764705882);
ENDSEC;
END-ISO-10303-21;
