ISO-10303-21;
HEADER;
/* Generated by software containing ST-Developer
 * from STEP Tools, Inc. (www.steptools.com) 
 */

FILE_DESCRIPTION(
/* description */ ('2" HOSE BARB X 1 1/4" HOSE BARB'),
/* implementation_level */ '2;1');

FILE_NAME(
/* name */ 'G:\\engineer\\1-3D\\STEP\\HBB20012590.stp',
/* time_stamp */ '2014-01-29T15:01:04-05:00',
/* author */ ('DCerny'),
/* organization */ (''),
/* preprocessor_version */ 'ST-DEVELOPER v15.2',
/* originating_system */ 'Autodesk Inventor 2014',
/* authorisation */ '');

FILE_SCHEMA (('AUTOMOTIVE_DESIGN { 1 0 10303 214 3 1 1 }'));
ENDSEC;

DATA;
#10=SHAPE_REPRESENTATION_RELATIONSHIP('SRR','None',#504,#11);
#11=ADVANCED_BREP_SHAPE_REPRESENTATION($,(#271),#492);
#12=STYLED_ITEM($,(#512),#271);
#13=SPHERICAL_SURFACE($,#296,0.625);
#14=SPHERICAL_SURFACE($,#299,0.405);
#15=PLANE($,#284);
#16=PLANE($,#292);
#17=PLANE($,#300);
#18=PLANE($,#306);
#19=PLANE($,#314);
#20=PLANE($,#320);
#21=CYLINDRICAL_SURFACE($,#279,0.75);
#22=CYLINDRICAL_SURFACE($,#294,0.405);
#23=CYLINDRICAL_SURFACE($,#302,0.97);
#24=CYLINDRICAL_SURFACE($,#308,0.97);
#25=CYLINDRICAL_SURFACE($,#312,0.625);
#26=CYLINDRICAL_SURFACE($,#318,0.625);
#27=ELLIPSE($,#277,0.582315109217797,0.405);
#28=ELLIPSE($,#311,0.898634427805242,0.625);
#29=CONICAL_SURFACE($,#276,0.571010477748951,14.5444792017418);
#30=CONICAL_SURFACE($,#285,1.01,9.09027692082235);
#31=CONICAL_SURFACE($,#290,0.64,4.51398845800128);
#32=CONICAL_SURFACE($,#304,1.01,9.09027692082235);
#33=CONICAL_SURFACE($,#310,0.787485305168134,14.5444792017418);
#34=CONICAL_SURFACE($,#316,0.64,4.51398845800129);
#35=FACE_BOUND($,#80,.T.);
#36=FACE_BOUND($,#82,.T.);
#37=FACE_BOUND($,#84,.T.);
#38=FACE_BOUND($,#86,.T.);
#39=FACE_BOUND($,#87,.T.);
#40=FACE_BOUND($,#88,.T.);
#41=FACE_BOUND($,#90,.T.);
#42=FACE_BOUND($,#92,.T.);
#43=FACE_BOUND($,#94,.T.);
#44=FACE_BOUND($,#95,.T.);
#45=FACE_BOUND($,#96,.T.);
#46=FACE_BOUND($,#98,.T.);
#47=FACE_BOUND($,#101,.T.);
#48=FACE_BOUND($,#102,.T.);
#49=FACE_BOUND($,#104,.T.);
#50=FACE_BOUND($,#106,.T.);
#51=FACE_BOUND($,#107,.T.);
#52=FACE_BOUND($,#108,.T.);
#53=FACE_BOUND($,#110,.T.);
#54=FACE_BOUND($,#112,.T.);
#55=FACE_BOUND($,#114,.T.);
#56=FACE_BOUND($,#115,.T.);
#57=FACE_BOUND($,#116,.T.);
#58=FACE_BOUND($,#118,.T.);
#59=FACE_BOUND($,#120,.T.);
#60=FACE_BOUND($,#121,.T.);
#61=FACE_BOUND($,#122,.T.);
#62=FACE_OUTER_BOUND($,#79,.T.);
#63=FACE_OUTER_BOUND($,#81,.T.);
#64=FACE_OUTER_BOUND($,#83,.T.);
#65=FACE_OUTER_BOUND($,#85,.T.);
#66=FACE_OUTER_BOUND($,#89,.T.);
#67=FACE_OUTER_BOUND($,#91,.T.);
#68=FACE_OUTER_BOUND($,#93,.T.);
#69=FACE_OUTER_BOUND($,#97,.T.);
#70=FACE_OUTER_BOUND($,#99,.T.);
#71=FACE_OUTER_BOUND($,#100,.T.);
#72=FACE_OUTER_BOUND($,#103,.T.);
#73=FACE_OUTER_BOUND($,#105,.T.);
#74=FACE_OUTER_BOUND($,#109,.T.);
#75=FACE_OUTER_BOUND($,#111,.T.);
#76=FACE_OUTER_BOUND($,#113,.T.);
#77=FACE_OUTER_BOUND($,#117,.T.);
#78=FACE_OUTER_BOUND($,#119,.T.);
#79=EDGE_LOOP($,(#194));
#80=EDGE_LOOP($,(#195));
#81=EDGE_LOOP($,(#196,#197));
#82=EDGE_LOOP($,(#198));
#83=EDGE_LOOP($,(#199));
#84=EDGE_LOOP($,(#200));
#85=EDGE_LOOP($,(#201));
#86=EDGE_LOOP($,(#202));
#87=EDGE_LOOP($,(#203));
#88=EDGE_LOOP($,(#204));
#89=EDGE_LOOP($,(#205));
#90=EDGE_LOOP($,(#206));
#91=EDGE_LOOP($,(#207));
#92=EDGE_LOOP($,(#208));
#93=EDGE_LOOP($,(#209));
#94=EDGE_LOOP($,(#210));
#95=EDGE_LOOP($,(#211));
#96=EDGE_LOOP($,(#212));
#97=EDGE_LOOP($,(#213));
#98=EDGE_LOOP($,(#214,#215));
#99=EDGE_LOOP($,(#216,#217));
#100=EDGE_LOOP($,(#218,#219));
#101=EDGE_LOOP($,(#220));
#102=EDGE_LOOP($,(#221));
#103=EDGE_LOOP($,(#222));
#104=EDGE_LOOP($,(#223));
#105=EDGE_LOOP($,(#224));
#106=EDGE_LOOP($,(#225));
#107=EDGE_LOOP($,(#226));
#108=EDGE_LOOP($,(#227));
#109=EDGE_LOOP($,(#228));
#110=EDGE_LOOP($,(#229));
#111=EDGE_LOOP($,(#230,#231));
#112=EDGE_LOOP($,(#232));
#113=EDGE_LOOP($,(#233,#234));
#114=EDGE_LOOP($,(#235));
#115=EDGE_LOOP($,(#236));
#116=EDGE_LOOP($,(#237));
#117=EDGE_LOOP($,(#238));
#118=EDGE_LOOP($,(#239));
#119=EDGE_LOOP($,(#240));
#120=EDGE_LOOP($,(#241));
#121=EDGE_LOOP($,(#242));
#122=EDGE_LOOP($,(#243));
#123=CIRCLE($,#274,0.741988244134507);
#124=CIRCLE($,#275,0.75);
#125=CIRCLE($,#278,0.392020955497902);
#126=CIRCLE($,#280,0.75);
#127=CIRCLE($,#282,0.918836853274374);
#128=CIRCLE($,#283,0.978083291189376);
#129=CIRCLE($,#286,1.05);
#130=CIRCLE($,#288,0.629364040858537);
#131=CIRCLE($,#289,0.569550151939329);
#132=CIRCLE($,#291,0.655);
#133=CIRCLE($,#293,0.405);
#134=CIRCLE($,#295,0.405);
#135=CIRCLE($,#297,0.604970610336268);
#136=CIRCLE($,#298,0.625);
#137=CIRCLE($,#301,0.97);
#138=CIRCLE($,#303,0.97);
#139=CIRCLE($,#305,1.05);
#140=CIRCLE($,#307,0.97);
#141=CIRCLE($,#309,0.97);
#142=CIRCLE($,#313,0.625);
#143=CIRCLE($,#315,0.655);
#144=CIRCLE($,#317,0.625);
#145=CIRCLE($,#319,0.625);
#146=VERTEX_POINT($,#421);
#147=VERTEX_POINT($,#423);
#148=VERTEX_POINT($,#426);
#149=VERTEX_POINT($,#427);
#150=VERTEX_POINT($,#431);
#151=VERTEX_POINT($,#434);
#152=VERTEX_POINT($,#436);
#153=VERTEX_POINT($,#440);
#154=VERTEX_POINT($,#443);
#155=VERTEX_POINT($,#445);
#156=VERTEX_POINT($,#448);
#157=VERTEX_POINT($,#451);
#158=VERTEX_POINT($,#456);
#159=VERTEX_POINT($,#457);
#160=VERTEX_POINT($,#462);
#161=VERTEX_POINT($,#465);
#162=VERTEX_POINT($,#468);
#163=VERTEX_POINT($,#471);
#164=VERTEX_POINT($,#474);
#165=VERTEX_POINT($,#479);
#166=VERTEX_POINT($,#482);
#167=VERTEX_POINT($,#485);
#168=VERTEX_POINT($,#488);
#169=EDGE_CURVE($,#146,#146,#123,.T.);
#170=EDGE_CURVE($,#147,#147,#124,.T.);
#171=EDGE_CURVE($,#148,#149,#27,.T.);
#172=EDGE_CURVE($,#149,#148,#125,.T.);
#173=EDGE_CURVE($,#150,#150,#126,.T.);
#174=EDGE_CURVE($,#151,#151,#127,.T.);
#175=EDGE_CURVE($,#152,#152,#128,.T.);
#176=EDGE_CURVE($,#153,#153,#129,.T.);
#177=EDGE_CURVE($,#154,#154,#130,.T.);
#178=EDGE_CURVE($,#155,#155,#131,.T.);
#179=EDGE_CURVE($,#156,#156,#132,.T.);
#180=EDGE_CURVE($,#157,#157,#133,.T.);
#181=EDGE_CURVE($,#149,#148,#134,.T.);
#182=EDGE_CURVE($,#158,#159,#135,.T.);
#183=EDGE_CURVE($,#158,#159,#136,.T.);
#184=EDGE_CURVE($,#160,#160,#137,.T.);
#185=EDGE_CURVE($,#161,#161,#138,.T.);
#186=EDGE_CURVE($,#162,#162,#139,.T.);
#187=EDGE_CURVE($,#163,#163,#140,.T.);
#188=EDGE_CURVE($,#164,#164,#141,.T.);
#189=EDGE_CURVE($,#159,#158,#28,.T.);
#190=EDGE_CURVE($,#165,#165,#142,.T.);
#191=EDGE_CURVE($,#166,#166,#143,.T.);
#192=EDGE_CURVE($,#167,#167,#144,.T.);
#193=EDGE_CURVE($,#168,#168,#145,.T.);
#194=ORIENTED_EDGE($,*,*,#169,.T.);
#195=ORIENTED_EDGE($,*,*,#170,.T.);
#196=ORIENTED_EDGE($,*,*,#171,.T.);
#197=ORIENTED_EDGE($,*,*,#172,.T.);
#198=ORIENTED_EDGE($,*,*,#169,.F.);
#199=ORIENTED_EDGE($,*,*,#173,.F.);
#200=ORIENTED_EDGE($,*,*,#170,.F.);
#201=ORIENTED_EDGE($,*,*,#174,.T.);
#202=ORIENTED_EDGE($,*,*,#175,.T.);
#203=ORIENTED_EDGE($,*,*,#173,.T.);
#204=ORIENTED_EDGE($,*,*,#174,.F.);
#205=ORIENTED_EDGE($,*,*,#176,.F.);
#206=ORIENTED_EDGE($,*,*,#175,.F.);
#207=ORIENTED_EDGE($,*,*,#177,.T.);
#208=ORIENTED_EDGE($,*,*,#178,.T.);
#209=ORIENTED_EDGE($,*,*,#179,.T.);
#210=ORIENTED_EDGE($,*,*,#177,.F.);
#211=ORIENTED_EDGE($,*,*,#180,.F.);
#212=ORIENTED_EDGE($,*,*,#178,.F.);
#213=ORIENTED_EDGE($,*,*,#180,.T.);
#214=ORIENTED_EDGE($,*,*,#171,.F.);
#215=ORIENTED_EDGE($,*,*,#181,.F.);
#216=ORIENTED_EDGE($,*,*,#182,.T.);
#217=ORIENTED_EDGE($,*,*,#183,.F.);
#218=ORIENTED_EDGE($,*,*,#172,.F.);
#219=ORIENTED_EDGE($,*,*,#181,.T.);
#220=ORIENTED_EDGE($,*,*,#184,.F.);
#221=ORIENTED_EDGE($,*,*,#176,.T.);
#222=ORIENTED_EDGE($,*,*,#185,.F.);
#223=ORIENTED_EDGE($,*,*,#184,.T.);
#224=ORIENTED_EDGE($,*,*,#186,.F.);
#225=ORIENTED_EDGE($,*,*,#185,.T.);
#226=ORIENTED_EDGE($,*,*,#187,.F.);
#227=ORIENTED_EDGE($,*,*,#186,.T.);
#228=ORIENTED_EDGE($,*,*,#188,.F.);
#229=ORIENTED_EDGE($,*,*,#187,.T.);
#230=ORIENTED_EDGE($,*,*,#189,.F.);
#231=ORIENTED_EDGE($,*,*,#182,.F.);
#232=ORIENTED_EDGE($,*,*,#188,.T.);
#233=ORIENTED_EDGE($,*,*,#189,.T.);
#234=ORIENTED_EDGE($,*,*,#183,.T.);
#235=ORIENTED_EDGE($,*,*,#190,.F.);
#236=ORIENTED_EDGE($,*,*,#190,.T.);
#237=ORIENTED_EDGE($,*,*,#191,.F.);
#238=ORIENTED_EDGE($,*,*,#191,.T.);
#239=ORIENTED_EDGE($,*,*,#192,.F.);
#240=ORIENTED_EDGE($,*,*,#192,.T.);
#241=ORIENTED_EDGE($,*,*,#193,.F.);
#242=ORIENTED_EDGE($,*,*,#193,.T.);
#243=ORIENTED_EDGE($,*,*,#179,.F.);
#244=TOROIDAL_SURFACE($,#273,0.5,0.25);
#245=TOROIDAL_SURFACE($,#281,0.918836853274374,0.06);
#246=TOROIDAL_SURFACE($,#287,0.569550151939329,0.06);
#247=ADVANCED_FACE($,(#62,#35),#244,.F.);
#248=ADVANCED_FACE($,(#63,#36),#29,.F.);
#249=ADVANCED_FACE($,(#64,#37),#21,.F.);
#250=ADVANCED_FACE($,(#65,#38),#245,.T.);
#251=ADVANCED_FACE($,(#39,#40),#15,.T.);
#252=ADVANCED_FACE($,(#66,#41),#30,.T.);
#253=ADVANCED_FACE($,(#67,#42),#246,.T.);
#254=ADVANCED_FACE($,(#68,#43),#31,.T.);
#255=ADVANCED_FACE($,(#44,#45),#16,.T.);
#256=ADVANCED_FACE($,(#69,#46),#22,.F.);
#257=ADVANCED_FACE($,(#70),#13,.T.);
#258=ADVANCED_FACE($,(#71),#14,.F.);
#259=ADVANCED_FACE($,(#47,#48),#17,.T.);
#260=ADVANCED_FACE($,(#72,#49),#23,.T.);
#261=ADVANCED_FACE($,(#73,#50),#32,.T.);
#262=ADVANCED_FACE($,(#51,#52),#18,.T.);
#263=ADVANCED_FACE($,(#74,#53),#24,.T.);
#264=ADVANCED_FACE($,(#75,#54),#33,.T.);
#265=ADVANCED_FACE($,(#76,#55),#25,.T.);
#266=ADVANCED_FACE($,(#56,#57),#19,.T.);
#267=ADVANCED_FACE($,(#77,#58),#34,.T.);
#268=ADVANCED_FACE($,(#78,#59),#26,.T.);
#269=ADVANCED_FACE($,(#60,#61),#20,.T.);
#270=CLOSED_SHELL($,(#247,#248,#249,#250,#251,#252,#253,#254,#255,#256,
#257,#258,#259,#260,#261,#262,#263,#264,#265,#266,#267,#268,#269));
#271=MANIFOLD_SOLID_BREP('Solid1',#270);
#272=AXIS2_PLACEMENT_3D('placement',#419,#321,#322);
#273=AXIS2_PLACEMENT_3D($,#420,#323,#324);
#274=AXIS2_PLACEMENT_3D($,#422,#325,#326);
#275=AXIS2_PLACEMENT_3D($,#424,#327,#328);
#276=AXIS2_PLACEMENT_3D($,#425,#329,#330);
#277=AXIS2_PLACEMENT_3D($,#428,#331,#332);
#278=AXIS2_PLACEMENT_3D($,#429,#333,#334);
#279=AXIS2_PLACEMENT_3D($,#430,#335,#336);
#280=AXIS2_PLACEMENT_3D($,#432,#337,#338);
#281=AXIS2_PLACEMENT_3D($,#433,#339,#340);
#282=AXIS2_PLACEMENT_3D($,#435,#341,#342);
#283=AXIS2_PLACEMENT_3D($,#437,#343,#344);
#284=AXIS2_PLACEMENT_3D($,#438,#345,#346);
#285=AXIS2_PLACEMENT_3D($,#439,#347,#348);
#286=AXIS2_PLACEMENT_3D($,#441,#349,#350);
#287=AXIS2_PLACEMENT_3D($,#442,#351,#352);
#288=AXIS2_PLACEMENT_3D($,#444,#353,#354);
#289=AXIS2_PLACEMENT_3D($,#446,#355,#356);
#290=AXIS2_PLACEMENT_3D($,#447,#357,#358);
#291=AXIS2_PLACEMENT_3D($,#449,#359,#360);
#292=AXIS2_PLACEMENT_3D($,#450,#361,#362);
#293=AXIS2_PLACEMENT_3D($,#452,#363,#364);
#294=AXIS2_PLACEMENT_3D($,#453,#365,#366);
#295=AXIS2_PLACEMENT_3D($,#454,#367,#368);
#296=AXIS2_PLACEMENT_3D($,#455,#369,#370);
#297=AXIS2_PLACEMENT_3D($,#458,#371,#372);
#298=AXIS2_PLACEMENT_3D($,#459,#373,#374);
#299=AXIS2_PLACEMENT_3D($,#460,#375,#376);
#300=AXIS2_PLACEMENT_3D($,#461,#377,#378);
#301=AXIS2_PLACEMENT_3D($,#463,#379,#380);
#302=AXIS2_PLACEMENT_3D($,#464,#381,#382);
#303=AXIS2_PLACEMENT_3D($,#466,#383,#384);
#304=AXIS2_PLACEMENT_3D($,#467,#385,#386);
#305=AXIS2_PLACEMENT_3D($,#469,#387,#388);
#306=AXIS2_PLACEMENT_3D($,#470,#389,#390);
#307=AXIS2_PLACEMENT_3D($,#472,#391,#392);
#308=AXIS2_PLACEMENT_3D($,#473,#393,#394);
#309=AXIS2_PLACEMENT_3D($,#475,#395,#396);
#310=AXIS2_PLACEMENT_3D($,#476,#397,#398);
#311=AXIS2_PLACEMENT_3D($,#477,#399,#400);
#312=AXIS2_PLACEMENT_3D($,#478,#401,#402);
#313=AXIS2_PLACEMENT_3D($,#480,#403,#404);
#314=AXIS2_PLACEMENT_3D($,#481,#405,#406);
#315=AXIS2_PLACEMENT_3D($,#483,#407,#408);
#316=AXIS2_PLACEMENT_3D($,#484,#409,#410);
#317=AXIS2_PLACEMENT_3D($,#486,#411,#412);
#318=AXIS2_PLACEMENT_3D($,#487,#413,#414);
#319=AXIS2_PLACEMENT_3D($,#489,#415,#416);
#320=AXIS2_PLACEMENT_3D($,#490,#417,#418);
#321=DIRECTION('axis',(0.,0.,1.));
#322=DIRECTION('refdir',(1.,0.,0.));
#323=DIRECTION('center_axis',(-1.23918878063121E-016,1.,0.));
#324=DIRECTION('ref_axis',(0.,0.,1.));
#325=DIRECTION('center_axis',(0.,1.,0.));
#326=DIRECTION('ref_axis',(1.,0.,-6.12323399573677E-017));
#327=DIRECTION('center_axis',(1.23918878063121E-016,-1.,0.));
#328=DIRECTION('ref_axis',(1.,1.2384377571278E-016,0.));
#329=DIRECTION('center_axis',(1.23918878063121E-016,-1.,0.));
#330=DIRECTION('ref_axis',(-1.,0.,0.));
#331=DIRECTION('center_axis',(0.695499727877613,0.718526358961289,0.));
#332=DIRECTION('ref_axis',(-0.718526358961289,0.695499727877613,0.));
#333=DIRECTION('center_axis',(-1.23918878063121E-016,1.,0.));
#334=DIRECTION('ref_axis',(1.,1.23918878063121E-016,0.));
#335=DIRECTION('center_axis',(-1.23918878063121E-016,1.,0.));
#336=DIRECTION('ref_axis',(-1.,0.,0.));
#337=DIRECTION('center_axis',(-1.23918878063121E-016,1.,0.));
#338=DIRECTION('ref_axis',(1.,1.23918878063121E-016,0.));
#339=DIRECTION('center_axis',(-1.23918878063121E-016,1.,0.));
#340=DIRECTION('ref_axis',(0.,0.,1.));
#341=DIRECTION('center_axis',(-1.23918878063121E-016,1.,0.));
#342=DIRECTION('ref_axis',(1.,1.23918878063121E-016,0.));
#343=DIRECTION('center_axis',(0.,-1.,0.));
#344=DIRECTION('ref_axis',(1.,0.,-6.12323399573676E-017));
#345=DIRECTION('center_axis',(1.23918878063121E-016,-1.,0.));
#346=DIRECTION('ref_axis',(0.,0.,-1.));
#347=DIRECTION('center_axis',(-1.23918878063121E-016,1.,0.));
#348=DIRECTION('ref_axis',(-1.,0.,0.));
#349=DIRECTION('center_axis',(-1.23918878063121E-016,1.,0.));
#350=DIRECTION('ref_axis',(1.,1.23918878063121E-016,0.));
#351=DIRECTION('center_axis',(1.,0.,0.));
#352=DIRECTION('ref_axis',(0.,0.,-1.));
#353=DIRECTION('center_axis',(1.,0.,0.));
#354=DIRECTION('ref_axis',(0.,-1.,3.06161699786838E-017));
#355=DIRECTION('center_axis',(-1.,0.,0.));
#356=DIRECTION('ref_axis',(0.,-1.,1.83697019872103E-016));
#357=DIRECTION('center_axis',(-1.,0.,0.));
#358=DIRECTION('ref_axis',(0.,1.,0.));
#359=DIRECTION('center_axis',(1.,0.,0.));
#360=DIRECTION('ref_axis',(0.,0.,-1.));
#361=DIRECTION('center_axis',(1.,0.,0.));
#362=DIRECTION('ref_axis',(0.,0.,-1.));
#363=DIRECTION('center_axis',(1.,0.,0.));
#364=DIRECTION('ref_axis',(0.,0.,-1.));
#365=DIRECTION('center_axis',(1.,0.,0.));
#366=DIRECTION('ref_axis',(0.,1.,0.));
#367=DIRECTION('center_axis',(1.,0.,0.));
#368=DIRECTION('ref_axis',(0.,0.,-1.));
#369=DIRECTION('center_axis',(6.12323399573677E-017,0.,1.));
#370=DIRECTION('ref_axis',(1.,0.,0.));
#371=DIRECTION('center_axis',(-1.23918878063121E-016,1.,0.));
#372=DIRECTION('ref_axis',(1.,1.23918878063121E-016,0.));
#373=DIRECTION('center_axis',(1.,0.,0.));
#374=DIRECTION('ref_axis',(0.,0.,-1.));
#375=DIRECTION('center_axis',(6.12323399573677E-017,0.,1.));
#376=DIRECTION('ref_axis',(1.,0.,0.));
#377=DIRECTION('center_axis',(-1.23918878063121E-016,1.,0.));
#378=DIRECTION('ref_axis',(0.,0.,1.));
#379=DIRECTION('center_axis',(-1.23918878063121E-016,1.,0.));
#380=DIRECTION('ref_axis',(1.,1.23918878063121E-016,0.));
#381=DIRECTION('center_axis',(-1.23918878063121E-016,1.,0.));
#382=DIRECTION('ref_axis',(-1.,0.,0.));
#383=DIRECTION('center_axis',(-1.23918878063121E-016,1.,0.));
#384=DIRECTION('ref_axis',(1.,1.23918878063121E-016,0.));
#385=DIRECTION('center_axis',(-1.23918878063121E-016,1.,0.));
#386=DIRECTION('ref_axis',(-1.,0.,0.));
#387=DIRECTION('center_axis',(-1.23918878063121E-016,1.,0.));
#388=DIRECTION('ref_axis',(1.,1.23918878063121E-016,0.));
#389=DIRECTION('center_axis',(-1.23918878063121E-016,1.,0.));
#390=DIRECTION('ref_axis',(0.,0.,1.));
#391=DIRECTION('center_axis',(-1.23918878063121E-016,1.,0.));
#392=DIRECTION('ref_axis',(1.,1.23918878063121E-016,0.));
#393=DIRECTION('center_axis',(-1.23918878063121E-016,1.,0.));
#394=DIRECTION('ref_axis',(-1.,0.,0.));
#395=DIRECTION('center_axis',(-1.23918878063121E-016,1.,0.));
#396=DIRECTION('ref_axis',(1.,1.23918878063121E-016,0.));
#397=DIRECTION('center_axis',(1.23918878063121E-016,-1.,0.));
#398=DIRECTION('ref_axis',(-1.,0.,0.));
#399=DIRECTION('center_axis',(0.695499727877612,0.718526358961289,0.));
#400=DIRECTION('ref_axis',(0.718526358961289,-0.695499727877612,1.57400263600977E-016));
#401=DIRECTION('center_axis',(1.,0.,0.));
#402=DIRECTION('ref_axis',(0.,1.,0.));
#403=DIRECTION('center_axis',(1.,0.,0.));
#404=DIRECTION('ref_axis',(0.,0.,-1.));
#405=DIRECTION('center_axis',(-1.,0.,0.));
#406=DIRECTION('ref_axis',(0.,0.,1.));
#407=DIRECTION('center_axis',(1.,0.,0.));
#408=DIRECTION('ref_axis',(0.,0.,-1.));
#409=DIRECTION('center_axis',(-1.,0.,0.));
#410=DIRECTION('ref_axis',(0.,1.,0.));
#411=DIRECTION('center_axis',(1.,0.,0.));
#412=DIRECTION('ref_axis',(0.,0.,-1.));
#413=DIRECTION('center_axis',(1.,0.,0.));
#414=DIRECTION('ref_axis',(0.,1.,0.));
#415=DIRECTION('center_axis',(1.,0.,0.));
#416=DIRECTION('ref_axis',(0.,0.,-1.));
#417=DIRECTION('center_axis',(-1.,0.,0.));
#418=DIRECTION('ref_axis',(0.,0.,1.));
#419=CARTESIAN_POINT('',(0.,0.,0.));
#420=CARTESIAN_POINT('Origin',(1.62330873449379E-016,-1.30997694610091,
0.));
#421=CARTESIAN_POINT('',(-0.741988244134507,-1.24719406865253,9.08673528184289E-017));
#422=CARTESIAN_POINT('Origin',(1.74838271594513E-016,-1.24719406865253,
-4.54336764092145E-017));
#423=CARTESIAN_POINT('',(-0.75,-1.30997694610091,-9.18485099360515E-017));
#424=CARTESIAN_POINT('Origin',(1.62330873449379E-016,-1.30997694610091,
0.));
#425=CARTESIAN_POINT('Origin',(7.28869807848691E-017,-0.5881830268649,0.));
#426=CARTESIAN_POINT('',(0.,0.101708261466372,0.392020955497902));
#427=CARTESIAN_POINT('',(0.,0.101708261466372,-0.392020955497902));
#428=CARTESIAN_POINT('Origin',(0.105075622402795,0.,0.));
#429=CARTESIAN_POINT('Origin',(-1.26035736506634E-017,0.101708261466372,
0.));
#430=CARTESIAN_POINT('Origin',(3.19591391052656E-016,-2.57903715759809,
0.));
#431=CARTESIAN_POINT('',(-0.749999999999999,-3.88,0.));
#432=CARTESIAN_POINT('Origin',(4.8080524688491E-016,-3.88,0.));
#433=CARTESIAN_POINT('Origin',(4.73370114201123E-016,-3.82,0.));
#434=CARTESIAN_POINT('',(-0.918836853274373,-3.88,1.12525061130109E-016));
#435=CARTESIAN_POINT('Origin',(4.8080524688491E-016,-3.88,0.));
#436=CARTESIAN_POINT('',(-0.978083291189376,-3.8294794300664,-1.19780657185458E-016));
#437=CARTESIAN_POINT('Origin',(5.24514814783538E-016,-3.8294794300664,-5.98903285927289E-017));
#438=CARTESIAN_POINT('Origin',(-0.97,-3.88,0.));
#439=CARTESIAN_POINT('Origin',(4.4982552736913E-016,-3.63,0.));
#440=CARTESIAN_POINT('',(-1.05,-3.38,0.));
#441=CARTESIAN_POINT('Origin',(4.1884580785335E-016,-3.38,0.));
#442=CARTESIAN_POINT('Origin',(2.38,0.,0.));
#443=CARTESIAN_POINT('',(2.3847221491252,0.629364040858537,-3.85374329067926E-017));
#444=CARTESIAN_POINT('Origin',(2.3847221491252,0.,-9.63435822669814E-017));
#445=CARTESIAN_POINT('',(2.44,0.569550151939329,-1.74374442631597E-016));
#446=CARTESIAN_POINT('Origin',(2.44,0.,0.));
#447=CARTESIAN_POINT('Origin',(2.25,0.,0.));
#448=CARTESIAN_POINT('',(2.06,0.655,0.));
#449=CARTESIAN_POINT('Origin',(2.06,0.,0.));
#450=CARTESIAN_POINT('Origin',(2.44,0.405,0.));
#451=CARTESIAN_POINT('',(2.44,0.405,0.));
#452=CARTESIAN_POINT('Origin',(2.44,0.,0.));
#453=CARTESIAN_POINT('Origin',(1.22,0.,0.));
#454=CARTESIAN_POINT('Origin',(0.,0.,0.));
#455=CARTESIAN_POINT('Origin',(0.,0.,0.));
#456=CARTESIAN_POINT('',(0.,0.156957193620945,-0.604970610336268));
#457=CARTESIAN_POINT('',(0.,0.156957193620945,0.604970610336268));
#458=CARTESIAN_POINT('Origin',(-1.94499593374436E-017,0.156957193620945,
0.));
#459=CARTESIAN_POINT('Origin',(0.,0.,0.));
#460=CARTESIAN_POINT('Origin',(0.,0.,0.));
#461=CARTESIAN_POINT('Origin',(-0.97,-3.38,0.));
#462=CARTESIAN_POINT('',(-0.97,-3.38,0.));
#463=CARTESIAN_POINT('Origin',(4.1884580785335E-016,-3.38,0.));
#464=CARTESIAN_POINT('Origin',(3.7795257809252E-016,-3.05,0.));
#465=CARTESIAN_POINT('',(-0.97,-2.72,0.));
#466=CARTESIAN_POINT('Origin',(3.3705934833169E-016,-2.72,0.));
#467=CARTESIAN_POINT('Origin',(3.06079628815909E-016,-2.47,0.));
#468=CARTESIAN_POINT('',(-1.05,-2.22,0.));
#469=CARTESIAN_POINT('Origin',(2.75099909300129E-016,-2.22,0.));
#470=CARTESIAN_POINT('Origin',(-0.97,-2.22,0.));
#471=CARTESIAN_POINT('',(-0.97,-2.22,0.));
#472=CARTESIAN_POINT('Origin',(2.75099909300129E-016,-2.22,0.));
#473=CARTESIAN_POINT('Origin',(2.14999253439515E-016,-1.735,0.));
#474=CARTESIAN_POINT('',(-0.97,-1.25,0.));
#475=CARTESIAN_POINT('Origin',(1.54898597578901E-016,-1.25,0.));
#476=CARTESIAN_POINT('Origin',(6.7724319120729E-017,-0.546521403189528,
0.));
#477=CARTESIAN_POINT('Origin',(0.162153738275919,8.74191357972564E-017,
8.74191357972564E-017));
#478=CARTESIAN_POINT('Origin',(0.625,0.,0.));
#479=CARTESIAN_POINT('',(1.25,0.625,0.));
#480=CARTESIAN_POINT('Origin',(1.25,0.,0.));
#481=CARTESIAN_POINT('Origin',(1.25,0.655,0.));
#482=CARTESIAN_POINT('',(1.25,0.655,0.));
#483=CARTESIAN_POINT('Origin',(1.25,0.,0.));
#484=CARTESIAN_POINT('Origin',(1.44,0.,0.));
#485=CARTESIAN_POINT('',(1.63,0.625,0.));
#486=CARTESIAN_POINT('Origin',(1.63,0.,0.));
#487=CARTESIAN_POINT('Origin',(1.845,0.,0.));
#488=CARTESIAN_POINT('',(2.06,0.625,0.));
#489=CARTESIAN_POINT('Origin',(2.06,0.,0.));
#490=CARTESIAN_POINT('Origin',(2.06,0.655,0.));
#491=UNCERTAINTY_MEASURE_WITH_UNIT(LENGTH_MEASURE(0.000393700787401575),
#493,'DISTANCE_ACCURACY_VALUE',
'Maximum model space distance between geometric entities at asserted c
onnectivities');
#492=(
GEOMETRIC_REPRESENTATION_CONTEXT(3)
GLOBAL_UNCERTAINTY_ASSIGNED_CONTEXT((#491))
GLOBAL_UNIT_ASSIGNED_CONTEXT((#493,#499,#496))
REPRESENTATION_CONTEXT('','3D')
);
#493=(
CONVERSION_BASED_UNIT('__CONSTANT UNIT inch',#495)
LENGTH_UNIT()
NAMED_UNIT(#498)
);
#494=(
LENGTH_UNIT()
NAMED_UNIT(*)
SI_UNIT(.MILLI.,.METRE.)
);
#495=LENGTH_MEASURE_WITH_UNIT(LENGTH_MEASURE(25.4),#494);
#496=(
NAMED_UNIT(*)
SI_UNIT($,.STERADIAN.)
SOLID_ANGLE_UNIT()
);
#497=DIMENSIONAL_EXPONENTS(0.,0.,0.,0.,0.,0.,0.);
#498=DIMENSIONAL_EXPONENTS(1.,0.,0.,0.,0.,0.,0.);
#499=(
CONVERSION_BASED_UNIT('degree',#501)
NAMED_UNIT(#497)
PLANE_ANGLE_UNIT()
);
#500=(
NAMED_UNIT(*)
PLANE_ANGLE_UNIT()
SI_UNIT($,.RADIAN.)
);
#501=PLANE_ANGLE_MEASURE_WITH_UNIT(PLANE_ANGLE_MEASURE(0.01745329252),#500);
#502=SHAPE_DEFINITION_REPRESENTATION(#503,#504);
#503=PRODUCT_DEFINITION_SHAPE('',$,#506);
#504=SHAPE_REPRESENTATION('',(#272),#492);
#505=PRODUCT_DEFINITION_CONTEXT('3D Mechanical Parts',#509,'design');
#506=PRODUCT_DEFINITION('HBB20012590','HBB20012590',#507,#505);
#507=PRODUCT_DEFINITION_FORMATION('',$,#511);
#508=APPLICATION_PROTOCOL_DEFINITION('international standard',
'automotive_design',2009,#509);
#509=APPLICATION_CONTEXT(
'Core Data for Automotive Mechanical Design Process');
#510=PRODUCT_CONTEXT('3D Mechanical Parts',#509,'mechanical');
#511=PRODUCT('HBB20012590','HBB20012590',$,(#510));
#512=PRESENTATION_STYLE_ASSIGNMENT((#513));
#513=SURFACE_STYLE_USAGE(.BOTH.,#514);
#514=SURFACE_SIDE_STYLE($,(#515));
#515=SURFACE_STYLE_FILL_AREA(#516);
#516=FILL_AREA_STYLE($,(#517));
#517=FILL_AREA_STYLE_COLOUR($,#518);
#518=COLOUR_RGB('',0.270588235294118,0.270588235294118,0.270588235294118);
ENDSEC;
END-ISO-10303-21;
