ISO-10303-21;
HEADER;
/* Generated by software containing ST-Developer
 * from STEP Tools, Inc. (www.steptools.com) 
 */

FILE_DESCRIPTION(
/* description */ ('AS568A -339 O-RING, FKM, BROWN'),
/* implementation_level */ '2;1');

FILE_NAME(
/* name */ 'E:\\1-3D\\STEP\\LS150-GV.stp',
/* time_stamp */ '2020-05-18T14:43:38-04:00',
/* author */ ('MJC'),
/* organization */ (''),
/* preprocessor_version */ 'ST-DEVELOPER v17.2',
/* originating_system */ 'Autodesk Inventor 2019',
/* authorisation */ '');

FILE_SCHEMA (('AUTOMOTIVE_DESIGN { 1 0 10303 214 3 1 1 }'));
ENDSEC;

DATA;
#10=MECHANICAL_DESIGN_GEOMETRIC_PRESENTATION_REPRESENTATION('',(#13),#67);
#11=SHAPE_REPRESENTATION_RELATIONSHIP('SRR','None',#77,#12);
#12=ADVANCED_BREP_SHAPE_REPRESENTATION('',(#14),#66);
#13=STYLED_ITEM('',(#86),#14);
#14=MANIFOLD_SOLID_BREP('Solid1',#28);
#15=FACE_OUTER_BOUND('',#16,.T.);
#16=EDGE_LOOP('',(#22,#23,#24,#25));
#17=CIRCLE('',#49,0.105);
#18=CIRCLE('',#50,1.6125);
#19=VERTEX_POINT('',#61);
#20=EDGE_CURVE('',#19,#19,#17,.T.);
#21=EDGE_CURVE('',#19,#19,#18,.T.);
#22=ORIENTED_EDGE('',*,*,#20,.F.);
#23=ORIENTED_EDGE('',*,*,#21,.T.);
#24=ORIENTED_EDGE('',*,*,#20,.T.);
#25=ORIENTED_EDGE('',*,*,#21,.F.);
#26=TOROIDAL_SURFACE('',#48,1.7175,0.105);
#27=ADVANCED_FACE('',(#15),#26,.T.);
#28=CLOSED_SHELL('',(#27));
#29=DERIVED_UNIT_ELEMENT(#31,1.);
#30=DERIVED_UNIT_ELEMENT(#71,3.);
#31=(
MASS_UNIT()
NAMED_UNIT(*)
SI_UNIT($,.GRAM.)
);
#32=DERIVED_UNIT((#29,#30));
#33=MEASURE_REPRESENTATION_ITEM('density measure',
POSITIVE_RATIO_MEASURE(0.93),#32);
#34=PROPERTY_DEFINITION_REPRESENTATION(#39,#36);
#35=PROPERTY_DEFINITION_REPRESENTATION(#40,#37);
#36=REPRESENTATION('material name',(#38),#66);
#37=REPRESENTATION('density',(#33),#66);
#38=DESCRIPTIVE_REPRESENTATION_ITEM('FKM, BROWN','FKM, BROWN');
#39=PROPERTY_DEFINITION('material property','material name',#79);
#40=PROPERTY_DEFINITION('material property','density of part',#79);
#41=DATE_TIME_ROLE('creation_date');
#42=APPLIED_DATE_AND_TIME_ASSIGNMENT(#43,#41,(#79));
#43=DATE_AND_TIME(#44,#45);
#44=CALENDAR_DATE(2010,4,6);
#45=LOCAL_TIME(19,47,51.,#46);
#46=COORDINATED_UNIVERSAL_TIME_OFFSET(0,0,.BEHIND.);
#47=AXIS2_PLACEMENT_3D('placement',#59,#51,#52);
#48=AXIS2_PLACEMENT_3D('',#60,#53,#54);
#49=AXIS2_PLACEMENT_3D('',#62,#55,#56);
#50=AXIS2_PLACEMENT_3D('',#63,#57,#58);
#51=DIRECTION('axis',(0.,0.,1.));
#52=DIRECTION('refdir',(1.,0.,0.));
#53=DIRECTION('center_axis',(0.,-1.,0.));
#54=DIRECTION('ref_axis',(0.,0.,-1.));
#55=DIRECTION('center_axis',(-1.,0.,-1.22464679914735E-16));
#56=DIRECTION('ref_axis',(-1.22464679914735E-16,0.,1.));
#57=DIRECTION('center_axis',(0.,1.,0.));
#58=DIRECTION('ref_axis',(0.,0.,-1.));
#59=CARTESIAN_POINT('',(0.,0.,0.));
#60=CARTESIAN_POINT('Origin',(0.,0.,0.));
#61=CARTESIAN_POINT('',(-1.97474296362511E-16,-1.28587913910472E-17,1.6125));
#62=CARTESIAN_POINT('Origin',(-2.10333087753558E-16,0.,1.7175));
#63=CARTESIAN_POINT('Origin',(0.,1.28587913910472E-17,0.));
#64=UNCERTAINTY_MEASURE_WITH_UNIT(LENGTH_MEASURE(0.000393700787401575),
#69,'DISTANCE_ACCURACY_VALUE',
'Maximum model space distance between geometric entities at asserted c
onnectivities');
#65=UNCERTAINTY_MEASURE_WITH_UNIT(LENGTH_MEASURE(0.000393700787401575),
#69,'DISTANCE_ACCURACY_VALUE',
'Maximum model space distance between geometric entities at asserted c
onnectivities');
#66=(
GEOMETRIC_REPRESENTATION_CONTEXT(3)
GLOBAL_UNCERTAINTY_ASSIGNED_CONTEXT((#64))
GLOBAL_UNIT_ASSIGNED_CONTEXT((#69,#73,#74))
REPRESENTATION_CONTEXT('','3D')
);
#67=(
GEOMETRIC_REPRESENTATION_CONTEXT(3)
GLOBAL_UNCERTAINTY_ASSIGNED_CONTEXT((#65))
GLOBAL_UNIT_ASSIGNED_CONTEXT((#69,#73,#74))
REPRESENTATION_CONTEXT('','3D')
);
#68=DIMENSIONAL_EXPONENTS(1.,0.,0.,0.,0.,0.,0.);
#69=(
CONVERSION_BASED_UNIT('inch',#72)
LENGTH_UNIT()
NAMED_UNIT(#68)
);
#70=(
LENGTH_UNIT()
NAMED_UNIT(*)
SI_UNIT(.MILLI.,.METRE.)
);
#71=(
LENGTH_UNIT()
NAMED_UNIT(*)
SI_UNIT(.CENTI.,.METRE.)
);
#72=LENGTH_MEASURE_WITH_UNIT(LENGTH_MEASURE(25.4),#70);
#73=(
NAMED_UNIT(*)
PLANE_ANGLE_UNIT()
SI_UNIT($,.RADIAN.)
);
#74=(
NAMED_UNIT(*)
SI_UNIT($,.STERADIAN.)
SOLID_ANGLE_UNIT()
);
#75=SHAPE_DEFINITION_REPRESENTATION(#76,#77);
#76=PRODUCT_DEFINITION_SHAPE('',$,#79);
#77=SHAPE_REPRESENTATION('',(#47),#66);
#78=PRODUCT_DEFINITION_CONTEXT('part definition',#83,'design');
#79=PRODUCT_DEFINITION('LS150-GV','LS150-GV',#80,#78);
#80=PRODUCT_DEFINITION_FORMATION('00',$,#85);
#81=PRODUCT_RELATED_PRODUCT_CATEGORY('LS150-GV','LS150-GV',(#85));
#82=APPLICATION_PROTOCOL_DEFINITION('international standard',
'automotive_design',2009,#83);
#83=APPLICATION_CONTEXT(
'Core Data for Automotive Mechanical Design Process');
#84=PRODUCT_CONTEXT('part definition',#83,'mechanical');
#85=PRODUCT('LS150-GV','LS150-GV','AS568A -339 O-RING, FKM, BROWN',(#84));
#86=PRESENTATION_STYLE_ASSIGNMENT((#87));
#87=SURFACE_STYLE_USAGE(.BOTH.,#90);
#88=SURFACE_STYLE_RENDERING_WITH_PROPERTIES($,#94,(#89));
#89=SURFACE_STYLE_TRANSPARENT(0.);
#90=SURFACE_SIDE_STYLE('',(#91,#88));
#91=SURFACE_STYLE_FILL_AREA(#92);
#92=FILL_AREA_STYLE('',(#93));
#93=FILL_AREA_STYLE_COLOUR('',#94);
#94=COLOUR_RGB('',0.474509803921569,0.23921568627451,0.);
ENDSEC;
END-ISO-10303-21;
