ISO-10303-21;
HEADER;
/* Generated by software containing ST-Developer
 * from STEP Tools, Inc. (www.steptools.com) 
 */

FILE_DESCRIPTION(
/* description */ ('3" SS LINE STRAINER GASKET, FKM, BROWN'),
/* implementation_level */ '2;1');

FILE_NAME(
/* name */ 'E:\\1-3D\\STEP\\LSS300-GV.stp',
/* time_stamp */ '2020-07-31T13:03:15-04:00',
/* author */ ('MEG'),
/* organization */ (''),
/* preprocessor_version */ 'ST-DEVELOPER v17.2',
/* originating_system */ 'Autodesk Inventor 2019',
/* authorisation */ '');

FILE_SCHEMA (('AUTOMOTIVE_DESIGN { 1 0 10303 214 3 1 1 }'));
ENDSEC;

DATA;
#10=MECHANICAL_DESIGN_GEOMETRIC_PRESENTATION_REPRESENTATION('',(#13),#171);
#11=SHAPE_REPRESENTATION_RELATIONSHIP('SRR','None',#181,#12);
#12=ADVANCED_BREP_SHAPE_REPRESENTATION('',(#14),#170);
#13=STYLED_ITEM('',(#190),#14);
#14=MANIFOLD_SOLID_BREP('Solid1',#85);
#15=LINE('',#157,#17);
#16=LINE('',#167,#18);
#17=VECTOR('',#131,1.935);
#18=VECTOR('',#144,2.25);
#19=CYLINDRICAL_SURFACE('',#110,1.935);
#20=CYLINDRICAL_SURFACE('',#116,2.25);
#21=FACE_BOUND('',#28,.T.);
#22=FACE_BOUND('',#31,.T.);
#23=FACE_OUTER_BOUND('',#27,.T.);
#24=FACE_OUTER_BOUND('',#29,.T.);
#25=FACE_OUTER_BOUND('',#30,.T.);
#26=FACE_OUTER_BOUND('',#32,.T.);
#27=EDGE_LOOP('',(#59,#60));
#28=EDGE_LOOP('',(#61,#62));
#29=EDGE_LOOP('',(#63,#64,#65,#66,#67,#68));
#30=EDGE_LOOP('',(#69,#70));
#31=EDGE_LOOP('',(#71,#72));
#32=EDGE_LOOP('',(#73,#74,#75,#76,#77,#78));
#33=CIRCLE('',#106,2.25);
#34=CIRCLE('',#107,2.25);
#35=CIRCLE('',#108,1.935);
#36=CIRCLE('',#109,1.935);
#37=CIRCLE('',#111,1.935);
#38=CIRCLE('',#112,1.935);
#39=CIRCLE('',#114,2.25);
#40=CIRCLE('',#115,2.25);
#41=VERTEX_POINT('',#147);
#42=VERTEX_POINT('',#148);
#43=VERTEX_POINT('',#151);
#44=VERTEX_POINT('',#152);
#45=VERTEX_POINT('',#156);
#46=VERTEX_POINT('',#158);
#47=VERTEX_POINT('',#162);
#48=VERTEX_POINT('',#163);
#49=EDGE_CURVE('',#41,#42,#33,.T.);
#50=EDGE_CURVE('',#42,#41,#34,.T.);
#51=EDGE_CURVE('',#43,#44,#35,.T.);
#52=EDGE_CURVE('',#44,#43,#36,.T.);
#53=EDGE_CURVE('',#44,#45,#15,.T.);
#54=EDGE_CURVE('',#46,#45,#37,.T.);
#55=EDGE_CURVE('',#45,#46,#38,.T.);
#56=EDGE_CURVE('',#47,#48,#39,.T.);
#57=EDGE_CURVE('',#48,#47,#40,.T.);
#58=EDGE_CURVE('',#42,#48,#16,.T.);
#59=ORIENTED_EDGE('',*,*,#49,.T.);
#60=ORIENTED_EDGE('',*,*,#50,.T.);
#61=ORIENTED_EDGE('',*,*,#51,.F.);
#62=ORIENTED_EDGE('',*,*,#52,.F.);
#63=ORIENTED_EDGE('',*,*,#51,.T.);
#64=ORIENTED_EDGE('',*,*,#53,.T.);
#65=ORIENTED_EDGE('',*,*,#54,.F.);
#66=ORIENTED_EDGE('',*,*,#55,.F.);
#67=ORIENTED_EDGE('',*,*,#53,.F.);
#68=ORIENTED_EDGE('',*,*,#52,.T.);
#69=ORIENTED_EDGE('',*,*,#56,.F.);
#70=ORIENTED_EDGE('',*,*,#57,.F.);
#71=ORIENTED_EDGE('',*,*,#54,.T.);
#72=ORIENTED_EDGE('',*,*,#55,.T.);
#73=ORIENTED_EDGE('',*,*,#49,.F.);
#74=ORIENTED_EDGE('',*,*,#50,.F.);
#75=ORIENTED_EDGE('',*,*,#58,.T.);
#76=ORIENTED_EDGE('',*,*,#57,.T.);
#77=ORIENTED_EDGE('',*,*,#56,.T.);
#78=ORIENTED_EDGE('',*,*,#58,.F.);
#79=PLANE('',#105);
#80=PLANE('',#113);
#81=ADVANCED_FACE('',(#23,#21),#79,.T.);
#82=ADVANCED_FACE('',(#24),#19,.F.);
#83=ADVANCED_FACE('',(#25,#22),#80,.T.);
#84=ADVANCED_FACE('',(#26),#20,.T.);
#85=CLOSED_SHELL('',(#81,#82,#83,#84));
#86=DERIVED_UNIT_ELEMENT(#88,1.);
#87=DERIVED_UNIT_ELEMENT(#175,3.);
#88=(
MASS_UNIT()
NAMED_UNIT(*)
SI_UNIT($,.GRAM.)
);
#89=DERIVED_UNIT((#86,#87));
#90=MEASURE_REPRESENTATION_ITEM('density measure',
POSITIVE_RATIO_MEASURE(0.93),#89);
#91=PROPERTY_DEFINITION_REPRESENTATION(#96,#93);
#92=PROPERTY_DEFINITION_REPRESENTATION(#97,#94);
#93=REPRESENTATION('material name',(#95),#170);
#94=REPRESENTATION('density',(#90),#170);
#95=DESCRIPTIVE_REPRESENTATION_ITEM('FKM, BROWN','FKM, BROWN');
#96=PROPERTY_DEFINITION('material property','material name',#183);
#97=PROPERTY_DEFINITION('material property','density of part',#183);
#98=DATE_TIME_ROLE('creation_date');
#99=APPLIED_DATE_AND_TIME_ASSIGNMENT(#100,#98,(#183));
#100=DATE_AND_TIME(#101,#102);
#101=CALENDAR_DATE(1997,4,6);
#102=LOCAL_TIME(18,1,44.,#103);
#103=COORDINATED_UNIVERSAL_TIME_OFFSET(0,0,.BEHIND.);
#104=AXIS2_PLACEMENT_3D('placement',#145,#117,#118);
#105=AXIS2_PLACEMENT_3D('',#146,#119,#120);
#106=AXIS2_PLACEMENT_3D('',#149,#121,#122);
#107=AXIS2_PLACEMENT_3D('',#150,#123,#124);
#108=AXIS2_PLACEMENT_3D('',#153,#125,#126);
#109=AXIS2_PLACEMENT_3D('',#154,#127,#128);
#110=AXIS2_PLACEMENT_3D('',#155,#129,#130);
#111=AXIS2_PLACEMENT_3D('',#159,#132,#133);
#112=AXIS2_PLACEMENT_3D('',#160,#134,#135);
#113=AXIS2_PLACEMENT_3D('',#161,#136,#137);
#114=AXIS2_PLACEMENT_3D('',#164,#138,#139);
#115=AXIS2_PLACEMENT_3D('',#165,#140,#141);
#116=AXIS2_PLACEMENT_3D('',#166,#142,#143);
#117=DIRECTION('axis',(0.,0.,1.));
#118=DIRECTION('refdir',(1.,0.,0.));
#119=DIRECTION('center_axis',(1.,0.,0.));
#120=DIRECTION('ref_axis',(0.,0.,-1.));
#121=DIRECTION('center_axis',(1.,0.,0.));
#122=DIRECTION('ref_axis',(0.,1.,0.));
#123=DIRECTION('center_axis',(1.,0.,0.));
#124=DIRECTION('ref_axis',(0.,1.,0.));
#125=DIRECTION('center_axis',(1.,0.,0.));
#126=DIRECTION('ref_axis',(0.,1.,0.));
#127=DIRECTION('center_axis',(1.,0.,0.));
#128=DIRECTION('ref_axis',(0.,1.,0.));
#129=DIRECTION('center_axis',(1.,0.,0.));
#130=DIRECTION('ref_axis',(0.,1.,0.));
#131=DIRECTION('',(-1.,0.,0.));
#132=DIRECTION('center_axis',(1.,0.,0.));
#133=DIRECTION('ref_axis',(0.,1.,0.));
#134=DIRECTION('center_axis',(1.,0.,0.));
#135=DIRECTION('ref_axis',(0.,1.,0.));
#136=DIRECTION('center_axis',(-1.,0.,0.));
#137=DIRECTION('ref_axis',(0.,0.,1.));
#138=DIRECTION('center_axis',(1.,0.,0.));
#139=DIRECTION('ref_axis',(0.,1.,0.));
#140=DIRECTION('center_axis',(1.,0.,0.));
#141=DIRECTION('ref_axis',(0.,1.,0.));
#142=DIRECTION('center_axis',(1.,0.,0.));
#143=DIRECTION('ref_axis',(0.,1.,0.));
#144=DIRECTION('',(-1.,0.,0.));
#145=CARTESIAN_POINT('',(0.,0.,0.));
#146=CARTESIAN_POINT('Origin',(0.08,2.0925,0.));
#147=CARTESIAN_POINT('',(0.08,2.25,0.));
#148=CARTESIAN_POINT('',(0.08,-2.25,-2.75545529808154E-16));
#149=CARTESIAN_POINT('Origin',(0.08,0.,0.));
#150=CARTESIAN_POINT('Origin',(0.08,0.,0.));
#151=CARTESIAN_POINT('',(0.0799999999999999,1.935,0.));
#152=CARTESIAN_POINT('',(0.0799999999999999,-1.935,-2.36969155635013E-16));
#153=CARTESIAN_POINT('Origin',(0.0799999999999999,0.,0.));
#154=CARTESIAN_POINT('Origin',(0.0799999999999999,0.,0.));
#155=CARTESIAN_POINT('Origin',(0.,0.,0.));
#156=CARTESIAN_POINT('',(-0.0799999999999999,-1.935,-2.36969155635013E-16));
#157=CARTESIAN_POINT('',(0.,-1.935,-2.36969155635013E-16));
#158=CARTESIAN_POINT('',(-0.0799999999999999,1.935,0.));
#159=CARTESIAN_POINT('Origin',(-0.0799999999999999,0.,0.));
#160=CARTESIAN_POINT('Origin',(-0.0799999999999999,0.,0.));
#161=CARTESIAN_POINT('Origin',(-0.08,2.0925,0.));
#162=CARTESIAN_POINT('',(-0.08,2.25,0.));
#163=CARTESIAN_POINT('',(-0.08,-2.25,-2.75545529808154E-16));
#164=CARTESIAN_POINT('Origin',(-0.08,0.,0.));
#165=CARTESIAN_POINT('Origin',(-0.08,0.,0.));
#166=CARTESIAN_POINT('Origin',(0.,0.,0.));
#167=CARTESIAN_POINT('',(0.,-2.25,-2.75545529808154E-16));
#168=UNCERTAINTY_MEASURE_WITH_UNIT(LENGTH_MEASURE(0.000393700787401575),
#173,'DISTANCE_ACCURACY_VALUE',
'Maximum model space distance between geometric entities at asserted c
onnectivities');
#169=UNCERTAINTY_MEASURE_WITH_UNIT(LENGTH_MEASURE(0.000393700787401575),
#173,'DISTANCE_ACCURACY_VALUE',
'Maximum model space distance between geometric entities at asserted c
onnectivities');
#170=(
GEOMETRIC_REPRESENTATION_CONTEXT(3)
GLOBAL_UNCERTAINTY_ASSIGNED_CONTEXT((#168))
GLOBAL_UNIT_ASSIGNED_CONTEXT((#173,#177,#178))
REPRESENTATION_CONTEXT('','3D')
);
#171=(
GEOMETRIC_REPRESENTATION_CONTEXT(3)
GLOBAL_UNCERTAINTY_ASSIGNED_CONTEXT((#169))
GLOBAL_UNIT_ASSIGNED_CONTEXT((#173,#177,#178))
REPRESENTATION_CONTEXT('','3D')
);
#172=DIMENSIONAL_EXPONENTS(1.,0.,0.,0.,0.,0.,0.);
#173=(
CONVERSION_BASED_UNIT('inch',#176)
LENGTH_UNIT()
NAMED_UNIT(#172)
);
#174=(
LENGTH_UNIT()
NAMED_UNIT(*)
SI_UNIT(.MILLI.,.METRE.)
);
#175=(
LENGTH_UNIT()
NAMED_UNIT(*)
SI_UNIT(.CENTI.,.METRE.)
);
#176=LENGTH_MEASURE_WITH_UNIT(LENGTH_MEASURE(25.4),#174);
#177=(
NAMED_UNIT(*)
PLANE_ANGLE_UNIT()
SI_UNIT($,.RADIAN.)
);
#178=(
NAMED_UNIT(*)
SI_UNIT($,.STERADIAN.)
SOLID_ANGLE_UNIT()
);
#179=SHAPE_DEFINITION_REPRESENTATION(#180,#181);
#180=PRODUCT_DEFINITION_SHAPE('',$,#183);
#181=SHAPE_REPRESENTATION('',(#104),#170);
#182=PRODUCT_DEFINITION_CONTEXT('part definition',#187,'design');
#183=PRODUCT_DEFINITION('LSS300-GV','LSS300-GV',#184,#182);
#184=PRODUCT_DEFINITION_FORMATION('00',$,#189);
#185=PRODUCT_RELATED_PRODUCT_CATEGORY('LSS300-GV','LSS300-GV',(#189));
#186=APPLICATION_PROTOCOL_DEFINITION('international standard',
'automotive_design',2009,#187);
#187=APPLICATION_CONTEXT(
'Core Data for Automotive Mechanical Design Process');
#188=PRODUCT_CONTEXT('part definition',#187,'mechanical');
#189=PRODUCT('LSS300-GV','LSS300-GV',
'3" SS LINE STRAINER GASKET, FKM, BROWN',(#188));
#190=PRESENTATION_STYLE_ASSIGNMENT((#191));
#191=SURFACE_STYLE_USAGE(.BOTH.,#194);
#192=SURFACE_STYLE_RENDERING_WITH_PROPERTIES($,#198,(#193));
#193=SURFACE_STYLE_TRANSPARENT(0.);
#194=SURFACE_SIDE_STYLE('',(#195,#192));
#195=SURFACE_STYLE_FILL_AREA(#196);
#196=FILL_AREA_STYLE('',(#197));
#197=FILL_AREA_STYLE_COLOUR('',#198);
#198=COLOUR_RGB('',0.474509803921569,0.23921568627451,0.);
ENDSEC;
END-ISO-10303-21;
