ISO-10303-21;
HEADER;
/* Generated by software containing ST-Developer
 * from STEP Tools, Inc. (www.steptools.com) 
 */

FILE_DESCRIPTION(
/* description */ ('1" FKM GASKET FOR MANIFOLD'),
/* implementation_level */ '2;1');

FILE_NAME(
/* name */ 'E:\\1-3D\\STEP\\M100GV.stp',
/* time_stamp */ '2020-07-30T15:28:55-04:00',
/* author */ ('MJC'),
/* organization */ (''),
/* preprocessor_version */ 'ST-DEVELOPER v17.2',
/* originating_system */ 'Autodesk Inventor 2019',
/* authorisation */ '');

FILE_SCHEMA (('AUTOMOTIVE_DESIGN { 1 0 10303 214 3 1 1 }'));
ENDSEC;

DATA;
#10=MECHANICAL_DESIGN_GEOMETRIC_PRESENTATION_REPRESENTATION('',(#13),#131);
#11=SHAPE_REPRESENTATION_RELATIONSHIP('SRR','None',#141,#12);
#12=ADVANCED_BREP_SHAPE_REPRESENTATION('',(#14),#130);
#13=STYLED_ITEM('',(#150),#14);
#14=MANIFOLD_SOLID_BREP('Solid1',#65);
#15=FACE_BOUND('',#26,.T.);
#16=FACE_BOUND('',#28,.T.);
#17=PLANE('',#91);
#18=PLANE('',#92);
#19=FACE_OUTER_BOUND('',#23,.T.);
#20=FACE_OUTER_BOUND('',#24,.T.);
#21=FACE_OUTER_BOUND('',#25,.T.);
#22=FACE_OUTER_BOUND('',#27,.T.);
#23=EDGE_LOOP('',(#47,#48,#49,#50));
#24=EDGE_LOOP('',(#51,#52,#53,#54));
#25=EDGE_LOOP('',(#55));
#26=EDGE_LOOP('',(#56));
#27=EDGE_LOOP('',(#57));
#28=EDGE_LOOP('',(#58));
#29=LINE('',#118,#31);
#30=LINE('',#124,#32);
#31=VECTOR('',#99,0.51);
#32=VECTOR('',#106,0.6875);
#33=CIRCLE('',#86,0.51);
#34=CIRCLE('',#87,0.51);
#35=CIRCLE('',#89,0.6875);
#36=CIRCLE('',#90,0.6875);
#37=VERTEX_POINT('',#115);
#38=VERTEX_POINT('',#117);
#39=VERTEX_POINT('',#121);
#40=VERTEX_POINT('',#123);
#41=EDGE_CURVE('',#37,#37,#33,.T.);
#42=EDGE_CURVE('',#37,#38,#29,.T.);
#43=EDGE_CURVE('',#38,#38,#34,.T.);
#44=EDGE_CURVE('',#39,#39,#35,.T.);
#45=EDGE_CURVE('',#39,#40,#30,.T.);
#46=EDGE_CURVE('',#40,#40,#36,.T.);
#47=ORIENTED_EDGE('',*,*,#41,.F.);
#48=ORIENTED_EDGE('',*,*,#42,.T.);
#49=ORIENTED_EDGE('',*,*,#43,.F.);
#50=ORIENTED_EDGE('',*,*,#42,.F.);
#51=ORIENTED_EDGE('',*,*,#44,.T.);
#52=ORIENTED_EDGE('',*,*,#45,.T.);
#53=ORIENTED_EDGE('',*,*,#46,.F.);
#54=ORIENTED_EDGE('',*,*,#45,.F.);
#55=ORIENTED_EDGE('',*,*,#44,.F.);
#56=ORIENTED_EDGE('',*,*,#43,.T.);
#57=ORIENTED_EDGE('',*,*,#46,.T.);
#58=ORIENTED_EDGE('',*,*,#41,.T.);
#59=CYLINDRICAL_SURFACE('',#85,0.51);
#60=CYLINDRICAL_SURFACE('',#88,0.6875);
#61=ADVANCED_FACE('',(#19),#59,.F.);
#62=ADVANCED_FACE('',(#20),#60,.T.);
#63=ADVANCED_FACE('',(#21,#15),#17,.F.);
#64=ADVANCED_FACE('',(#22,#16),#18,.T.);
#65=CLOSED_SHELL('',(#61,#62,#63,#64));
#66=DERIVED_UNIT_ELEMENT(#68,1.);
#67=DERIVED_UNIT_ELEMENT(#135,3.);
#68=(
MASS_UNIT()
NAMED_UNIT(*)
SI_UNIT($,.GRAM.)
);
#69=DERIVED_UNIT((#66,#67));
#70=MEASURE_REPRESENTATION_ITEM('density measure',
POSITIVE_RATIO_MEASURE(0.93),#69);
#71=PROPERTY_DEFINITION_REPRESENTATION(#76,#73);
#72=PROPERTY_DEFINITION_REPRESENTATION(#77,#74);
#73=REPRESENTATION('material name',(#75),#130);
#74=REPRESENTATION('density',(#70),#130);
#75=DESCRIPTIVE_REPRESENTATION_ITEM('FKM, BROWN','FKM, BROWN');
#76=PROPERTY_DEFINITION('material property','material name',#143);
#77=PROPERTY_DEFINITION('material property','density of part',#143);
#78=DATE_TIME_ROLE('creation_date');
#79=APPLIED_DATE_AND_TIME_ASSIGNMENT(#80,#78,(#143));
#80=DATE_AND_TIME(#81,#82);
#81=CALENDAR_DATE(2010,13,9);
#82=LOCAL_TIME(14,8,35.,#83);
#83=COORDINATED_UNIVERSAL_TIME_OFFSET(0,0,.BEHIND.);
#84=AXIS2_PLACEMENT_3D('placement',#113,#93,#94);
#85=AXIS2_PLACEMENT_3D('',#114,#95,#96);
#86=AXIS2_PLACEMENT_3D('',#116,#97,#98);
#87=AXIS2_PLACEMENT_3D('',#119,#100,#101);
#88=AXIS2_PLACEMENT_3D('',#120,#102,#103);
#89=AXIS2_PLACEMENT_3D('',#122,#104,#105);
#90=AXIS2_PLACEMENT_3D('',#125,#107,#108);
#91=AXIS2_PLACEMENT_3D('',#126,#109,#110);
#92=AXIS2_PLACEMENT_3D('',#127,#111,#112);
#93=DIRECTION('axis',(0.,0.,1.));
#94=DIRECTION('refdir',(1.,0.,0.));
#95=DIRECTION('center_axis',(0.,0.,1.));
#96=DIRECTION('ref_axis',(-1.,0.,0.));
#97=DIRECTION('center_axis',(0.,0.,1.));
#98=DIRECTION('ref_axis',(-1.,0.,0.));
#99=DIRECTION('',(0.,0.,1.));
#100=DIRECTION('center_axis',(0.,0.,-1.));
#101=DIRECTION('ref_axis',(-1.,0.,0.));
#102=DIRECTION('center_axis',(0.,0.,1.));
#103=DIRECTION('ref_axis',(-1.,0.,0.));
#104=DIRECTION('center_axis',(0.,0.,-1.));
#105=DIRECTION('ref_axis',(-1.,0.,0.));
#106=DIRECTION('',(0.,0.,-1.));
#107=DIRECTION('center_axis',(0.,0.,-1.));
#108=DIRECTION('ref_axis',(-1.,0.,0.));
#109=DIRECTION('center_axis',(0.,0.,-1.));
#110=DIRECTION('ref_axis',(-1.,0.,0.));
#111=DIRECTION('center_axis',(0.,0.,-1.));
#112=DIRECTION('ref_axis',(-1.,0.,0.));
#113=CARTESIAN_POINT('',(0.,0.,0.));
#114=CARTESIAN_POINT('Origin',(0.,0.,0.));
#115=CARTESIAN_POINT('',(0.51,6.2456986756515E-17,0.));
#116=CARTESIAN_POINT('Origin',(0.,0.,0.));
#117=CARTESIAN_POINT('',(0.51,6.2456986756515E-17,0.218));
#118=CARTESIAN_POINT('',(0.51,6.2456986756515E-17,0.));
#119=CARTESIAN_POINT('Origin',(0.,0.,0.218));
#120=CARTESIAN_POINT('Origin',(0.,0.,0.));
#121=CARTESIAN_POINT('',(0.6875,8.41944674413805E-17,0.218));
#122=CARTESIAN_POINT('Origin',(0.,0.,0.218));
#123=CARTESIAN_POINT('',(0.6875,8.41944674413805E-17,0.));
#124=CARTESIAN_POINT('',(0.6875,8.41944674413805E-17,0.));
#125=CARTESIAN_POINT('Origin',(0.,0.,0.));
#126=CARTESIAN_POINT('Origin',(0.,0.,0.218));
#127=CARTESIAN_POINT('Origin',(0.,0.,0.));
#128=UNCERTAINTY_MEASURE_WITH_UNIT(LENGTH_MEASURE(0.000393700787401575),
#133,'DISTANCE_ACCURACY_VALUE',
'Maximum model space distance between geometric entities at asserted c
onnectivities');
#129=UNCERTAINTY_MEASURE_WITH_UNIT(LENGTH_MEASURE(0.000393700787401575),
#133,'DISTANCE_ACCURACY_VALUE',
'Maximum model space distance between geometric entities at asserted c
onnectivities');
#130=(
GEOMETRIC_REPRESENTATION_CONTEXT(3)
GLOBAL_UNCERTAINTY_ASSIGNED_CONTEXT((#128))
GLOBAL_UNIT_ASSIGNED_CONTEXT((#133,#137,#138))
REPRESENTATION_CONTEXT('','3D')
);
#131=(
GEOMETRIC_REPRESENTATION_CONTEXT(3)
GLOBAL_UNCERTAINTY_ASSIGNED_CONTEXT((#129))
GLOBAL_UNIT_ASSIGNED_CONTEXT((#133,#137,#138))
REPRESENTATION_CONTEXT('','3D')
);
#132=DIMENSIONAL_EXPONENTS(1.,0.,0.,0.,0.,0.,0.);
#133=(
CONVERSION_BASED_UNIT('inch',#136)
LENGTH_UNIT()
NAMED_UNIT(#132)
);
#134=(
LENGTH_UNIT()
NAMED_UNIT(*)
SI_UNIT(.MILLI.,.METRE.)
);
#135=(
LENGTH_UNIT()
NAMED_UNIT(*)
SI_UNIT(.CENTI.,.METRE.)
);
#136=LENGTH_MEASURE_WITH_UNIT(LENGTH_MEASURE(25.4),#134);
#137=(
NAMED_UNIT(*)
PLANE_ANGLE_UNIT()
SI_UNIT($,.RADIAN.)
);
#138=(
NAMED_UNIT(*)
SI_UNIT($,.STERADIAN.)
SOLID_ANGLE_UNIT()
);
#139=SHAPE_DEFINITION_REPRESENTATION(#140,#141);
#140=PRODUCT_DEFINITION_SHAPE('',$,#143);
#141=SHAPE_REPRESENTATION('',(#84),#130);
#142=PRODUCT_DEFINITION_CONTEXT('part definition',#147,'design');
#143=PRODUCT_DEFINITION('M100GV','M100GV',#144,#142);
#144=PRODUCT_DEFINITION_FORMATION('00',$,#149);
#145=PRODUCT_RELATED_PRODUCT_CATEGORY('M100GV','M100GV',(#149));
#146=APPLICATION_PROTOCOL_DEFINITION('international standard',
'automotive_design',2009,#147);
#147=APPLICATION_CONTEXT(
'Core Data for Automotive Mechanical Design Process');
#148=PRODUCT_CONTEXT('part definition',#147,'mechanical');
#149=PRODUCT('M100GV','M100GV','1" FKM GASKET FOR MANIFOLD',(#148));
#150=PRESENTATION_STYLE_ASSIGNMENT((#151));
#151=SURFACE_STYLE_USAGE(.BOTH.,#154);
#152=SURFACE_STYLE_RENDERING_WITH_PROPERTIES($,#158,(#153));
#153=SURFACE_STYLE_TRANSPARENT(0.);
#154=SURFACE_SIDE_STYLE('',(#155,#152));
#155=SURFACE_STYLE_FILL_AREA(#156);
#156=FILL_AREA_STYLE('',(#157));
#157=FILL_AREA_STYLE_COLOUR('',#158);
#158=COLOUR_RGB('',0.474509803921569,0.23921568627451,0.);
ENDSEC;
END-ISO-10303-21;
