ISO-10303-21;
HEADER;
/* Generated by software containing ST-Developer
 * from STEP Tools, Inc. (www.steptools.com) 
 */

FILE_DESCRIPTION(
/* description */ ('1/2" SS TANK FLANGE GASKET'),
/* implementation_level */ '2;1');

FILE_NAME(
/* name */ 'E:\\1-3D\\STEP\\TF138GV.stp',
/* time_stamp */ '2020-06-04T11:30:11-04:00',
/* author */ ('MJC'),
/* organization */ (''),
/* preprocessor_version */ 'ST-DEVELOPER v17.2',
/* originating_system */ 'Autodesk Inventor 2019',
/* authorisation */ '');

FILE_SCHEMA (('AUTOMOTIVE_DESIGN { 1 0 10303 214 3 1 1 }'));
ENDSEC;

DATA;
#10=MECHANICAL_DESIGN_GEOMETRIC_PRESENTATION_REPRESENTATION('',(#13),#171);
#11=SHAPE_REPRESENTATION_RELATIONSHIP('SRR','None',#181,#12);
#12=ADVANCED_BREP_SHAPE_REPRESENTATION('',(#14),#170);
#13=STYLED_ITEM('',(#190),#14);
#14=MANIFOLD_SOLID_BREP('Solid1',#85);
#15=FACE_BOUND('',#25,.T.);
#16=FACE_BOUND('',#28,.T.);
#17=PLANE('',#110);
#18=PLANE('',#116);
#19=FACE_OUTER_BOUND('',#23,.T.);
#20=FACE_OUTER_BOUND('',#24,.T.);
#21=FACE_OUTER_BOUND('',#26,.T.);
#22=FACE_OUTER_BOUND('',#27,.T.);
#23=EDGE_LOOP('',(#59,#60,#61,#62,#63,#64));
#24=EDGE_LOOP('',(#65,#66));
#25=EDGE_LOOP('',(#67,#68));
#26=EDGE_LOOP('',(#69,#70,#71,#72,#73,#74));
#27=EDGE_LOOP('',(#75,#76));
#28=EDGE_LOOP('',(#77,#78));
#29=LINE('',#152,#31);
#30=LINE('',#163,#32);
#31=VECTOR('',#125,1.0625);
#32=VECTOR('',#138,0.71875);
#33=CIRCLE('',#106,1.0625);
#34=CIRCLE('',#107,1.0625);
#35=CIRCLE('',#108,1.0625);
#36=CIRCLE('',#109,1.0625);
#37=CIRCLE('',#111,0.71875);
#38=CIRCLE('',#112,0.71875);
#39=CIRCLE('',#114,0.71875);
#40=CIRCLE('',#115,0.71875);
#41=VERTEX_POINT('',#147);
#42=VERTEX_POINT('',#148);
#43=VERTEX_POINT('',#151);
#44=VERTEX_POINT('',#153);
#45=VERTEX_POINT('',#157);
#46=VERTEX_POINT('',#158);
#47=VERTEX_POINT('',#162);
#48=VERTEX_POINT('',#164);
#49=EDGE_CURVE('',#41,#42,#33,.T.);
#50=EDGE_CURVE('',#42,#41,#34,.T.);
#51=EDGE_CURVE('',#42,#43,#29,.T.);
#52=EDGE_CURVE('',#43,#44,#35,.T.);
#53=EDGE_CURVE('',#44,#43,#36,.T.);
#54=EDGE_CURVE('',#45,#46,#37,.T.);
#55=EDGE_CURVE('',#46,#45,#38,.T.);
#56=EDGE_CURVE('',#46,#47,#30,.T.);
#57=EDGE_CURVE('',#48,#47,#39,.T.);
#58=EDGE_CURVE('',#47,#48,#40,.T.);
#59=ORIENTED_EDGE('',*,*,#49,.F.);
#60=ORIENTED_EDGE('',*,*,#50,.F.);
#61=ORIENTED_EDGE('',*,*,#51,.T.);
#62=ORIENTED_EDGE('',*,*,#52,.T.);
#63=ORIENTED_EDGE('',*,*,#53,.T.);
#64=ORIENTED_EDGE('',*,*,#51,.F.);
#65=ORIENTED_EDGE('',*,*,#49,.T.);
#66=ORIENTED_EDGE('',*,*,#50,.T.);
#67=ORIENTED_EDGE('',*,*,#54,.F.);
#68=ORIENTED_EDGE('',*,*,#55,.F.);
#69=ORIENTED_EDGE('',*,*,#54,.T.);
#70=ORIENTED_EDGE('',*,*,#56,.T.);
#71=ORIENTED_EDGE('',*,*,#57,.F.);
#72=ORIENTED_EDGE('',*,*,#58,.F.);
#73=ORIENTED_EDGE('',*,*,#56,.F.);
#74=ORIENTED_EDGE('',*,*,#55,.T.);
#75=ORIENTED_EDGE('',*,*,#53,.F.);
#76=ORIENTED_EDGE('',*,*,#52,.F.);
#77=ORIENTED_EDGE('',*,*,#57,.T.);
#78=ORIENTED_EDGE('',*,*,#58,.T.);
#79=CYLINDRICAL_SURFACE('',#105,1.0625);
#80=CYLINDRICAL_SURFACE('',#113,0.71875);
#81=ADVANCED_FACE('',(#19),#79,.T.);
#82=ADVANCED_FACE('',(#20,#15),#17,.T.);
#83=ADVANCED_FACE('',(#21),#80,.F.);
#84=ADVANCED_FACE('',(#22,#16),#18,.T.);
#85=CLOSED_SHELL('',(#81,#82,#83,#84));
#86=DERIVED_UNIT_ELEMENT(#88,1.);
#87=DERIVED_UNIT_ELEMENT(#175,3.);
#88=(
MASS_UNIT()
NAMED_UNIT(*)
SI_UNIT($,.GRAM.)
);
#89=DERIVED_UNIT((#86,#87));
#90=MEASURE_REPRESENTATION_ITEM('density measure',
POSITIVE_RATIO_MEASURE(0.93),#89);
#91=PROPERTY_DEFINITION_REPRESENTATION(#96,#93);
#92=PROPERTY_DEFINITION_REPRESENTATION(#97,#94);
#93=REPRESENTATION('material name',(#95),#170);
#94=REPRESENTATION('density',(#90),#170);
#95=DESCRIPTIVE_REPRESENTATION_ITEM('FKM, BROWN','FKM, BROWN');
#96=PROPERTY_DEFINITION('material property','material name',#183);
#97=PROPERTY_DEFINITION('material property','density of part',#183);
#98=DATE_TIME_ROLE('creation_date');
#99=APPLIED_DATE_AND_TIME_ASSIGNMENT(#100,#98,(#183));
#100=DATE_AND_TIME(#101,#102);
#101=CALENDAR_DATE(2007,15,6);
#102=LOCAL_TIME(19,33,9.,#103);
#103=COORDINATED_UNIVERSAL_TIME_OFFSET(0,0,.BEHIND.);
#104=AXIS2_PLACEMENT_3D('placement',#145,#117,#118);
#105=AXIS2_PLACEMENT_3D('',#146,#119,#120);
#106=AXIS2_PLACEMENT_3D('',#149,#121,#122);
#107=AXIS2_PLACEMENT_3D('',#150,#123,#124);
#108=AXIS2_PLACEMENT_3D('',#154,#126,#127);
#109=AXIS2_PLACEMENT_3D('',#155,#128,#129);
#110=AXIS2_PLACEMENT_3D('',#156,#130,#131);
#111=AXIS2_PLACEMENT_3D('',#159,#132,#133);
#112=AXIS2_PLACEMENT_3D('',#160,#134,#135);
#113=AXIS2_PLACEMENT_3D('',#161,#136,#137);
#114=AXIS2_PLACEMENT_3D('',#165,#139,#140);
#115=AXIS2_PLACEMENT_3D('',#166,#141,#142);
#116=AXIS2_PLACEMENT_3D('',#167,#143,#144);
#117=DIRECTION('axis',(0.,0.,1.));
#118=DIRECTION('refdir',(1.,0.,0.));
#119=DIRECTION('center_axis',(1.,0.,0.));
#120=DIRECTION('ref_axis',(0.,1.,0.));
#121=DIRECTION('center_axis',(1.,0.,0.));
#122=DIRECTION('ref_axis',(0.,1.,0.));
#123=DIRECTION('center_axis',(1.,0.,0.));
#124=DIRECTION('ref_axis',(0.,1.,0.));
#125=DIRECTION('',(-1.,0.,0.));
#126=DIRECTION('center_axis',(1.,0.,0.));
#127=DIRECTION('ref_axis',(0.,1.,0.));
#128=DIRECTION('center_axis',(1.,0.,0.));
#129=DIRECTION('ref_axis',(0.,1.,0.));
#130=DIRECTION('center_axis',(1.,0.,0.));
#131=DIRECTION('ref_axis',(0.,0.,-1.));
#132=DIRECTION('center_axis',(1.,0.,0.));
#133=DIRECTION('ref_axis',(0.,1.,0.));
#134=DIRECTION('center_axis',(1.,0.,0.));
#135=DIRECTION('ref_axis',(0.,1.,0.));
#136=DIRECTION('center_axis',(1.,0.,0.));
#137=DIRECTION('ref_axis',(0.,1.,0.));
#138=DIRECTION('',(-1.,0.,0.));
#139=DIRECTION('center_axis',(1.,0.,0.));
#140=DIRECTION('ref_axis',(0.,1.,0.));
#141=DIRECTION('center_axis',(1.,0.,0.));
#142=DIRECTION('ref_axis',(0.,1.,0.));
#143=DIRECTION('center_axis',(-1.,0.,0.));
#144=DIRECTION('ref_axis',(0.,0.,1.));
#145=CARTESIAN_POINT('',(0.,0.,0.));
#146=CARTESIAN_POINT('Origin',(2.18547839493141E-16,0.,0.));
#147=CARTESIAN_POINT('',(0.125,1.0625,0.));
#148=CARTESIAN_POINT('',(0.125,-1.0625,-1.30118722409406E-16));
#149=CARTESIAN_POINT('Origin',(0.125,0.,0.));
#150=CARTESIAN_POINT('Origin',(0.125,0.,0.));
#151=CARTESIAN_POINT('',(-0.125,-1.0625,-1.30118722409406E-16));
#152=CARTESIAN_POINT('',(2.18547839493141E-16,-1.0625,-1.30118722409406E-16));
#153=CARTESIAN_POINT('',(-0.125,1.0625,0.));
#154=CARTESIAN_POINT('Origin',(-0.125,0.,0.));
#155=CARTESIAN_POINT('Origin',(-0.125,0.,0.));
#156=CARTESIAN_POINT('Origin',(0.125,0.890625,0.));
#157=CARTESIAN_POINT('',(0.125,0.71875,0.));
#158=CARTESIAN_POINT('',(0.125,-0.71875,-8.8021488688716E-17));
#159=CARTESIAN_POINT('Origin',(0.125,0.,0.));
#160=CARTESIAN_POINT('Origin',(0.125,0.,0.));
#161=CARTESIAN_POINT('Origin',(1.96693055543827E-16,0.,0.));
#162=CARTESIAN_POINT('',(-0.125,-0.71875,-8.8021488688716E-17));
#163=CARTESIAN_POINT('',(1.96693055543827E-16,-0.71875,-8.8021488688716E-17));
#164=CARTESIAN_POINT('',(-0.125,0.71875,0.));
#165=CARTESIAN_POINT('Origin',(-0.125,0.,0.));
#166=CARTESIAN_POINT('Origin',(-0.125,0.,0.));
#167=CARTESIAN_POINT('Origin',(-0.125,0.890625,0.));
#168=UNCERTAINTY_MEASURE_WITH_UNIT(LENGTH_MEASURE(0.000393700787401575),
#173,'DISTANCE_ACCURACY_VALUE',
'Maximum model space distance between geometric entities at asserted c
onnectivities');
#169=UNCERTAINTY_MEASURE_WITH_UNIT(LENGTH_MEASURE(0.000393700787401575),
#173,'DISTANCE_ACCURACY_VALUE',
'Maximum model space distance between geometric entities at asserted c
onnectivities');
#170=(
GEOMETRIC_REPRESENTATION_CONTEXT(3)
GLOBAL_UNCERTAINTY_ASSIGNED_CONTEXT((#168))
GLOBAL_UNIT_ASSIGNED_CONTEXT((#173,#177,#178))
REPRESENTATION_CONTEXT('','3D')
);
#171=(
GEOMETRIC_REPRESENTATION_CONTEXT(3)
GLOBAL_UNCERTAINTY_ASSIGNED_CONTEXT((#169))
GLOBAL_UNIT_ASSIGNED_CONTEXT((#173,#177,#178))
REPRESENTATION_CONTEXT('','3D')
);
#172=DIMENSIONAL_EXPONENTS(1.,0.,0.,0.,0.,0.,0.);
#173=(
CONVERSION_BASED_UNIT('inch',#176)
LENGTH_UNIT()
NAMED_UNIT(#172)
);
#174=(
LENGTH_UNIT()
NAMED_UNIT(*)
SI_UNIT(.MILLI.,.METRE.)
);
#175=(
LENGTH_UNIT()
NAMED_UNIT(*)
SI_UNIT(.CENTI.,.METRE.)
);
#176=LENGTH_MEASURE_WITH_UNIT(LENGTH_MEASURE(25.4),#174);
#177=(
NAMED_UNIT(*)
PLANE_ANGLE_UNIT()
SI_UNIT($,.RADIAN.)
);
#178=(
NAMED_UNIT(*)
SI_UNIT($,.STERADIAN.)
SOLID_ANGLE_UNIT()
);
#179=SHAPE_DEFINITION_REPRESENTATION(#180,#181);
#180=PRODUCT_DEFINITION_SHAPE('',$,#183);
#181=SHAPE_REPRESENTATION('',(#104),#170);
#182=PRODUCT_DEFINITION_CONTEXT('part definition',#187,'design');
#183=PRODUCT_DEFINITION('TF138GV','TF138GV',#184,#182);
#184=PRODUCT_DEFINITION_FORMATION('00.1',$,#189);
#185=PRODUCT_RELATED_PRODUCT_CATEGORY('TF138GV','TF138GV',(#189));
#186=APPLICATION_PROTOCOL_DEFINITION('international standard',
'automotive_design',2009,#187);
#187=APPLICATION_CONTEXT(
'Core Data for Automotive Mechanical Design Process');
#188=PRODUCT_CONTEXT('part definition',#187,'mechanical');
#189=PRODUCT('TF138GV','TF138GV','1/2" SS TANK FLANGE GASKET',(#188));
#190=PRESENTATION_STYLE_ASSIGNMENT((#191));
#191=SURFACE_STYLE_USAGE(.BOTH.,#194);
#192=SURFACE_STYLE_RENDERING_WITH_PROPERTIES($,#198,(#193));
#193=SURFACE_STYLE_TRANSPARENT(0.);
#194=SURFACE_SIDE_STYLE('',(#195,#192));
#195=SURFACE_STYLE_FILL_AREA(#196);
#196=FILL_AREA_STYLE('',(#197));
#197=FILL_AREA_STYLE_COLOUR('',#198);
#198=COLOUR_RGB('',0.474509803921569,0.23921568627451,0.);
ENDSEC;
END-ISO-10303-21;
