ISO-10303-21;
HEADER;
/****************************************************************
 * Generated by software with PDElib inside                    *
 * PDElib Version v51a, created Wed 11/30/2011                  *
 * ITI Transcendata (http://www.transcendata.com/)              *
 ****************************************************************/
FILE_DESCRIPTION((''),'2;1');
FILE_NAME('E:\\1-3D\\STEP\\TF220G.stp','2013-04-29T13:24:58',('mclevenger'),(''),'Autodesk Inventor 2013','Autodesk Inventor 2013','');
FILE_SCHEMA(('AUTOMOTIVE_DESIGN { 1 0 10303 214 1 1 1 1 }'));
ENDSEC;
DATA;
#5=APPLICATION_CONTEXT('automotive design');
#6=APPLICATION_PROTOCOL_DEFINITION('International Standard','automotive_design',2001,#5);
#7=PRODUCT_CONTEXT('',#5,'mechanical');
#8=PRODUCT('TF220G','TF220G',$,(#7));
#9=PRODUCT_RELATED_PRODUCT_CATEGORY('part',$,(#8));
#10=PRODUCT_DEFINITION_FORMATION('',$,#8);
#11=PRODUCT_DEFINITION_CONTEXT('part definition',#5,'design');
#12=PRODUCT_DEFINITION('',$,#10,#11);
#18=(NAMED_UNIT(*)PLANE_ANGLE_UNIT()SI_UNIT($,.RADIAN.));
#19=DIMENSIONAL_EXPONENTS(0.0,0.0,0.0,0.0,0.0,0.0,0.0);
#20=PLANE_ANGLE_MEASURE_WITH_UNIT(PLANE_ANGLE_MEASURE(0.0174532925),#18);
#24=(CONVERSION_BASED_UNIT('DEGREE',#20)NAMED_UNIT(#19)PLANE_ANGLE_UNIT());
#28=(NAMED_UNIT(*)SI_UNIT($,.STERADIAN.)SOLID_ANGLE_UNIT());
#32=(LENGTH_UNIT()NAMED_UNIT(*)SI_UNIT(.CENTI.,.METRE.));
#33=DIMENSIONAL_EXPONENTS(1.0,0.0,0.0,0.0,0.0,0.0,0.0);
#34=LENGTH_MEASURE_WITH_UNIT(LENGTH_MEASURE(2.54),#32);
#38=(CONVERSION_BASED_UNIT('INCH',#34)LENGTH_UNIT()NAMED_UNIT(#33));
#40=UNCERTAINTY_MEASURE_WITH_UNIT(LENGTH_MEASURE(0.000393700787402),#38,'DISTANCE_ACCURACY_VALUE','');
#42=(GEOMETRIC_REPRESENTATION_CONTEXT(3)GLOBAL_UNCERTAINTY_ASSIGNED_CONTEXT((#40))GLOBAL_UNIT_ASSIGNED_CONTEXT((#24,#28,#38))REPRESENTATION_CONTEXT('None','None'));
#43=AXIS2_PLACEMENT_3D('',#44,#45,#46);
#44=CARTESIAN_POINT('',(0.0,0.0,0.0));
#45=DIRECTION('',(0.0,0.0,1.0));
#46=DIRECTION('',(1.0,0.0,0.0));
#47=SHAPE_REPRESENTATION('',(#43),#42);
#48=PRODUCT_DEFINITION_SHAPE('','',#12);
#49=SHAPE_DEFINITION_REPRESENTATION(#48,#47);
#55=(NAMED_UNIT(*)PLANE_ANGLE_UNIT()SI_UNIT($,.RADIAN.));
#56=DIMENSIONAL_EXPONENTS(0.0,0.0,0.0,0.0,0.0,0.0,0.0);
#57=PLANE_ANGLE_MEASURE_WITH_UNIT(PLANE_ANGLE_MEASURE(0.0174532925),#55);
#61=(CONVERSION_BASED_UNIT('DEGREE',#57)NAMED_UNIT(#56)PLANE_ANGLE_UNIT());
#65=(NAMED_UNIT(*)SI_UNIT($,.STERADIAN.)SOLID_ANGLE_UNIT());
#69=(LENGTH_UNIT()NAMED_UNIT(*)SI_UNIT(.MILLI.,.METRE.));
#71=UNCERTAINTY_MEASURE_WITH_UNIT(LENGTH_MEASURE(0.000001),#69,'DISTANCE_ACCURACY_VALUE','');
#73=(GEOMETRIC_REPRESENTATION_CONTEXT(3)GLOBAL_UNCERTAINTY_ASSIGNED_CONTEXT((#71))GLOBAL_UNIT_ASSIGNED_CONTEXT((#61,#65,#69))REPRESENTATION_CONTEXT('','3D'));
#74=CARTESIAN_POINT('',(0.125,1.7825,0.0));
#75=DIRECTION('',(1.0,0.0,0.0));
#76=DIRECTION('',(0.0,0.0,-1.0));
#77=AXIS2_PLACEMENT_3D('',#74,#75,#76);
#78=PLANE('',#77);
#79=CARTESIAN_POINT('',(0.125,1.95,0.0));
#80=VERTEX_POINT('',#79);
#81=CARTESIAN_POINT('',(0.125,0.0,0.0));
#82=DIRECTION('',(1.0,0.0,0.0));
#83=DIRECTION('',(0.0,1.0,0.0));
#84=AXIS2_PLACEMENT_3D('',#81,#82,#83);
#85=CIRCLE('',#84,1.95);
#86=EDGE_CURVE('',#80,#80,#85,.T.);
#87=ORIENTED_EDGE('',*,*,#86,.T.);
#88=EDGE_LOOP('',(#87));
#89=FACE_OUTER_BOUND('',#88,.T.);
#90=CARTESIAN_POINT('',(0.125,1.615,0.0));
#91=VERTEX_POINT('',#90);
#92=CARTESIAN_POINT('',(0.125,0.0,0.0));
#93=DIRECTION('',(1.0,0.0,0.0));
#94=DIRECTION('',(0.0,1.0,0.0));
#95=AXIS2_PLACEMENT_3D('',#92,#93,#94);
#96=CIRCLE('',#95,1.615);
#97=EDGE_CURVE('',#91,#91,#96,.T.);
#98=ORIENTED_EDGE('',*,*,#97,.F.);
#99=EDGE_LOOP('',(#98));
#100=FACE_BOUND('',#99,.T.);
#101=ADVANCED_FACE('',(#89,#100),#78,.T.);
#102=CARTESIAN_POINT('',(0.0,0.0,0.0));
#103=DIRECTION('',(1.0,0.0,0.0));
#104=DIRECTION('',(0.0,1.0,0.0));
#105=AXIS2_PLACEMENT_3D('',#102,#103,#104);
#106=CYLINDRICAL_SURFACE('',#105,1.615);
#107=CARTESIAN_POINT('',(-0.125,1.615,0.0));
#108=VERTEX_POINT('',#107);
#109=CARTESIAN_POINT('',(-0.125,0.0,0.0));
#110=DIRECTION('',(1.0,0.0,0.0));
#111=DIRECTION('',(0.0,1.0,0.0));
#112=AXIS2_PLACEMENT_3D('',#109,#110,#111);
#113=CIRCLE('',#112,1.615);
#114=EDGE_CURVE('',#108,#108,#113,.T.);
#115=ORIENTED_EDGE('',*,*,#114,.F.);
#116=EDGE_LOOP('',(#115));
#117=FACE_OUTER_BOUND('',#116,.T.);
#118=ORIENTED_EDGE('',*,*,#97,.T.);
#119=EDGE_LOOP('',(#118));
#120=FACE_BOUND('',#119,.T.);
#121=ADVANCED_FACE('',(#117,#120),#106,.F.);
#122=CARTESIAN_POINT('',(-0.125,1.7825,0.0));
#123=DIRECTION('',(-1.0,0.0,0.0));
#124=DIRECTION('',(0.0,0.0,1.0));
#125=AXIS2_PLACEMENT_3D('',#122,#123,#124);
#126=PLANE('',#125);
#127=CARTESIAN_POINT('',(-0.125,1.95,0.0));
#128=VERTEX_POINT('',#127);
#129=CARTESIAN_POINT('',(-0.125,0.0,0.0));
#130=DIRECTION('',(1.0,0.0,0.0));
#131=DIRECTION('',(0.0,1.0,0.0));
#132=AXIS2_PLACEMENT_3D('',#129,#130,#131);
#133=CIRCLE('',#132,1.95);
#134=EDGE_CURVE('',#128,#128,#133,.T.);
#135=ORIENTED_EDGE('',*,*,#134,.F.);
#136=EDGE_LOOP('',(#135));
#137=FACE_OUTER_BOUND('',#136,.T.);
#138=ORIENTED_EDGE('',*,*,#114,.T.);
#139=EDGE_LOOP('',(#138));
#140=FACE_BOUND('',#139,.T.);
#141=ADVANCED_FACE('',(#137,#140),#126,.T.);
#142=CARTESIAN_POINT('',(0.0,0.0,0.0));
#143=DIRECTION('',(1.0,0.0,0.0));
#144=DIRECTION('',(0.0,1.0,0.0));
#145=AXIS2_PLACEMENT_3D('',#142,#143,#144);
#146=CYLINDRICAL_SURFACE('',#145,1.95);
#147=ORIENTED_EDGE('',*,*,#86,.F.);
#148=EDGE_LOOP('',(#147));
#149=FACE_OUTER_BOUND('',#148,.T.);
#150=ORIENTED_EDGE('',*,*,#134,.T.);
#151=EDGE_LOOP('',(#150));
#152=FACE_BOUND('',#151,.T.);
#153=ADVANCED_FACE('',(#149,#152),#146,.T.);
#154=CLOSED_SHELL('',(#101,#121,#141,#153));
#155=MANIFOLD_SOLID_BREP('Solid1',#154);
#156=COLOUR_RGB('Rubber - Black - Version 1.1',0.25,0.25,0.25);
#157=FILL_AREA_STYLE_COLOUR('Rubber - Black - Version 1.1',#156);
#158=FILL_AREA_STYLE('Rubber - Black - Version 1.1',(#157));
#159=SURFACE_STYLE_FILL_AREA(#158);
#160=SURFACE_SIDE_STYLE('Rubber - Black - Version 1.1',(#159));
#161=SURFACE_STYLE_USAGE(.BOTH.,#160);
#162=PRESENTATION_STYLE_ASSIGNMENT((#161));
#163=STYLED_ITEM('',(#162),#155);
#164=MECHANICAL_DESIGN_GEOMETRIC_PRESENTATION_REPRESENTATION('',(#163),#42);
#165=ADVANCED_BREP_SHAPE_REPRESENTATION('ABSR',(#155),#42);
#166=SHAPE_REPRESENTATION_RELATIONSHIP('SRR','None',#165,#47);
ENDSEC;
END-ISO-10303-21;
