ISO-10303-21;
HEADER;
/* Generated by software containing ST-Developer
 * from STEP Tools, Inc. (www.steptools.com) 
 */

FILE_DESCRIPTION(
/* description */ ('AS568 -258 O-RING, FKM, BROWN'),
/* implementation_level */ '2;1');

FILE_NAME(
/* name */ 'E:\\1-3D\\STEP\\V40265.stp',
/* time_stamp */ '2023-05-31T13:38:51-04:00',
/* author */ ('ETQ'),
/* organization */ (''),
/* preprocessor_version */ 'ST-DEVELOPER v18.1',
/* originating_system */ 'Autodesk Inventor 2022',
/* authorisation */ '');

FILE_SCHEMA (('AUTOMOTIVE_DESIGN { 1 0 10303 214 3 1 1 }'));
ENDSEC;

DATA;
#10=MECHANICAL_DESIGN_GEOMETRIC_PRESENTATION_REPRESENTATION('',(#13),#69);
#11=SHAPE_REPRESENTATION_RELATIONSHIP('SRR','None',#80,#12);
#12=ADVANCED_BREP_SHAPE_REPRESENTATION('',(#14),#68);
#13=STYLED_ITEM('',(#89),#14);
#14=MANIFOLD_SOLID_BREP('Solid2',#28);
#15=FACE_OUTER_BOUND('',#16,.T.);
#16=EDGE_LOOP('',(#22,#23,#24,#25));
#17=CIRCLE('',#51,0.0695);
#18=CIRCLE('',#52,2.992);
#19=VERTEX_POINT('',#63);
#20=EDGE_CURVE('',#19,#19,#17,.T.);
#21=EDGE_CURVE('',#19,#19,#18,.T.);
#22=ORIENTED_EDGE('',*,*,#20,.F.);
#23=ORIENTED_EDGE('',*,*,#21,.T.);
#24=ORIENTED_EDGE('',*,*,#20,.T.);
#25=ORIENTED_EDGE('',*,*,#21,.F.);
#26=TOROIDAL_SURFACE('',#50,3.0615,0.0695);
#27=ADVANCED_FACE('',(#15),#26,.T.);
#28=CLOSED_SHELL('',(#27));
#29=DERIVED_UNIT_ELEMENT(#31,1.);
#30=DERIVED_UNIT_ELEMENT(#74,-3.);
#31=(
CONVERSION_BASED_UNIT('gram',#33)
MASS_UNIT()
NAMED_UNIT(#71)
);
#32=(
MASS_UNIT()
NAMED_UNIT(*)
SI_UNIT(.KILO.,.GRAM.)
);
#33=MASS_MEASURE_WITH_UNIT(MASS_MEASURE(0.001),#32);
#34=DERIVED_UNIT((#29,#30));
#35=MEASURE_REPRESENTATION_ITEM('density measure',
POSITIVE_RATIO_MEASURE(0.93),#34);
#36=PROPERTY_DEFINITION_REPRESENTATION(#41,#38);
#37=PROPERTY_DEFINITION_REPRESENTATION(#42,#39);
#38=REPRESENTATION('material name',(#40),#68);
#39=REPRESENTATION('density',(#35),#68);
#40=DESCRIPTIVE_REPRESENTATION_ITEM('FKM, BROWN','FKM, BROWN');
#41=PROPERTY_DEFINITION('material property','material name',#82);
#42=PROPERTY_DEFINITION('material property','density of part',#82);
#43=DATE_TIME_ROLE('creation_date');
#44=APPLIED_DATE_AND_TIME_ASSIGNMENT(#45,#43,(#82));
#45=DATE_AND_TIME(#46,#47);
#46=CALENDAR_DATE(2003,26,6);
#47=LOCAL_TIME(0,0,0.,#48);
#48=COORDINATED_UNIVERSAL_TIME_OFFSET(0,0,.BEHIND.);
#49=AXIS2_PLACEMENT_3D('placement',#61,#53,#54);
#50=AXIS2_PLACEMENT_3D('',#62,#55,#56);
#51=AXIS2_PLACEMENT_3D('',#64,#57,#58);
#52=AXIS2_PLACEMENT_3D('',#65,#59,#60);
#53=DIRECTION('axis',(0.,0.,1.));
#54=DIRECTION('refdir',(1.,0.,0.));
#55=DIRECTION('center_axis',(1.,0.,0.));
#56=DIRECTION('ref_axis',(0.,0.,-1.));
#57=DIRECTION('center_axis',(0.,-1.,-1.22464679914735E-16));
#58=DIRECTION('ref_axis',(0.,-1.22464679914735E-16,1.));
#59=DIRECTION('center_axis',(-1.,0.,0.));
#60=DIRECTION('ref_axis',(0.,0.,-1.));
#61=CARTESIAN_POINT('',(0.,0.,0.));
#62=CARTESIAN_POINT('Origin',(0.,0.,0.));
#63=CARTESIAN_POINT('',(8.5112952540741E-18,-3.66414322304888E-16,2.992));
#64=CARTESIAN_POINT('Origin',(0.,-3.74925617558962E-16,3.0615));
#65=CARTESIAN_POINT('Origin',(-8.5112952540741E-18,0.,0.));
#66=UNCERTAINTY_MEASURE_WITH_UNIT(LENGTH_MEASURE(0.000393700787401575),
#72,'DISTANCE_ACCURACY_VALUE',
'Maximum model space distance between geometric entities at asserted c
onnectivities');
#67=UNCERTAINTY_MEASURE_WITH_UNIT(LENGTH_MEASURE(0.000393700787401575),
#72,'DISTANCE_ACCURACY_VALUE',
'Maximum model space distance between geometric entities at asserted c
onnectivities');
#68=(
GEOMETRIC_REPRESENTATION_CONTEXT(3)
GLOBAL_UNCERTAINTY_ASSIGNED_CONTEXT((#66))
GLOBAL_UNIT_ASSIGNED_CONTEXT((#72,#76,#77))
REPRESENTATION_CONTEXT('','3D')
);
#69=(
GEOMETRIC_REPRESENTATION_CONTEXT(3)
GLOBAL_UNCERTAINTY_ASSIGNED_CONTEXT((#67))
GLOBAL_UNIT_ASSIGNED_CONTEXT((#72,#76,#77))
REPRESENTATION_CONTEXT('','3D')
);
#70=DIMENSIONAL_EXPONENTS(1.,0.,0.,0.,0.,0.,0.);
#71=DIMENSIONAL_EXPONENTS(1.,0.,0.,0.,0.,0.,0.);
#72=(
CONVERSION_BASED_UNIT('inch',#75)
LENGTH_UNIT()
NAMED_UNIT(#70)
);
#73=(
LENGTH_UNIT()
NAMED_UNIT(*)
SI_UNIT(.MILLI.,.METRE.)
);
#74=(
LENGTH_UNIT()
NAMED_UNIT(*)
SI_UNIT(.CENTI.,.METRE.)
);
#75=LENGTH_MEASURE_WITH_UNIT(LENGTH_MEASURE(25.4),#73);
#76=(
NAMED_UNIT(*)
PLANE_ANGLE_UNIT()
SI_UNIT($,.RADIAN.)
);
#77=(
NAMED_UNIT(*)
SI_UNIT($,.STERADIAN.)
SOLID_ANGLE_UNIT()
);
#78=SHAPE_DEFINITION_REPRESENTATION(#79,#80);
#79=PRODUCT_DEFINITION_SHAPE('',$,#82);
#80=SHAPE_REPRESENTATION('',(#49),#68);
#81=PRODUCT_DEFINITION_CONTEXT('part definition',#86,'design');
#82=PRODUCT_DEFINITION('V40265','V40265',#83,#81);
#83=PRODUCT_DEFINITION_FORMATION('00.1',$,#88);
#84=PRODUCT_RELATED_PRODUCT_CATEGORY('V40265','V40265',(#88));
#85=APPLICATION_PROTOCOL_DEFINITION('international standard',
'automotive_design',2009,#86);
#86=APPLICATION_CONTEXT(
'Core Data for Automotive Mechanical Design Process');
#87=PRODUCT_CONTEXT('part definition',#86,'mechanical');
#88=PRODUCT('V40265','V40265','AS568 -258 O-RING, FKM, BROWN',(#87));
#89=PRESENTATION_STYLE_ASSIGNMENT((#90));
#90=SURFACE_STYLE_USAGE(.BOTH.,#93);
#91=SURFACE_STYLE_RENDERING_WITH_PROPERTIES($,#97,(#92));
#92=SURFACE_STYLE_TRANSPARENT(0.);
#93=SURFACE_SIDE_STYLE('',(#94,#91));
#94=SURFACE_STYLE_FILL_AREA(#95);
#95=FILL_AREA_STYLE('',(#96));
#96=FILL_AREA_STYLE_COLOUR('',#97);
#97=COLOUR_RGB('',0.474509803921569,0.23921568627451,0.);
ENDSEC;
END-ISO-10303-21;
